» » »

Kittie- Brakish Tabs

Artists:  A B C D E F G H I J K L M N O P Q R S T U V W X Y Z # 

Kittie- Brakish Tabs

(ver. 1)
Kittie Tabs
 Rating:
4/5 (4 votes)
    Kittie- Brakish lessons Tabs too difficult? Try these video lessons and learn fast
                standerd tuning
intro
  ______________x3_____________   ______x1_______
 |                             | |               |
|----------18----------18----19---------------------|
|-16-16-16----16-16-16----16-----16-16-16-16-16-16--|
|---------------------------------------------------|
|---------------------------------------------------|
|---------------------------------------------------|
|---------------------------------------------------|

riff a & chorus
|-------------------|
|-------------------|
|-------------------|
|-0-1-0-1-0-1-6-6---|
|-0-1-0-1-0-1-6-6---|
|-0-1-0-1-0-1-6-6---| x8


verse
|------------|
|------------|
|------------|
|-0-0-1-0-0--|
|-0-0-1-0-0--|
|-0-0-1-0-0--| x8


riff b
|----------------------0------|
|----3------3----3-------5----|
|----5------5----5------------|
|-----------------------------|
|-0----0-0----0----0-0--------|
|-0----0-0----0----0-0--------| x4
            
Submit corrections

↑ Back to top | Kittie Tabs for Kittie- Brakish. Lyrics for acoustic guitar and electric guitar. Tablatures and chords are parodies/interpretations of the original songs. You may use it for private study, scholarship, research or language learning purposes only