>
 >
Into The Darkness 1

Into The Darkness 1 Guitar Tabs

Kittie - Into The Darkness 1 chords, tabs, tablatures, lyrics

Guitar lessons | Add/correct | Request | Top 50 tabs Artists:  A B C D E F G H I J K L M N O P Q R S T U V W X Y Z 0-9

Into The Darkness 1 Guitar Tabs – Kittie

CD, Sheet music, Poster

Do you like Into The Darkness 1? Share with your friends now
TabsTabs v2Tabs v3Tabs v4
I couldn't believe the fact that there wasn't a correct tabbing of this on here! Nice
try to all the other people that have done this. Thanks to Chimi8 for tabbing this
originally on a different site, I edited it a bit. This is not a difficult song at all,
the verse is alright if you just go along with it and jam, and the only mildly difficult
part is the Pre-Verse, because it's a little fast.

Kittie- Into the Darkness
Tuning:CGCFAD
Written by Morgan Lander. What a legend.

| PM palm mute
| /  slide up
| \  slide down
| h  hammer-on
| p  pull-off
| ~  let ring

Intro/Chorus
D|--------------------------|
A|--------------------------|
F|-9------5------7----------|
C|-9-X16--5--X16-7--X16-----|
G|-7------3------5----------|
C|--------------------------|

Pre-Verse
D|--------------------------|
A|--------------------------|
F|--------------------555---|
C|-000-540--000-540---555---|
G|-000-540--000-540---333---|
C|-000-540--000-540---------|
PM ...      ...

Verse
D|----------------------------|------------------------------------------|
A|----------------------------|------------------------------------------|
F|----------------------------|------------------------------------------|
C|-2-22222-42-2222222222------|-7-77777-97-777777777--7-77777-97-77\\\\2-|
G|-2-22222-42-2222222222--x2--|-7-77777-97-777777777--7-77777-97-77\\\\2-|
C|-2-22222-42-2222222222------|-7-77777-97-777777777--7-77777-97-77\\\\2-|
PM   .....    ..........          .....    .........    .....

D|----------------------------|-------------------------------------------|
A|----------------------------|-------------------------------------------|
F|----------------------------|-------------------------------------------|
C|-2-22222-42-2222222222------|-7-77777-97-777777777--7--7777777777777777-|
G|-2-22222-42-2222222222--x2--|-7-77777-97-777777777--7--7777777777777777-|
C|-2-22222-42-2222222222------|-7-77777-97-777777777--7--7777777777777777-|
PM   .....    ..........          .....    .........    ..... 

Pre-Chorus
D |-------------------|
A |-------------------|
F |------------555-777|
C |000-555-444-555-777|
G |000-555-444-333-555|
C |000-555-444--------|

Chorus
Pre-Verse x2
Chorus
Pre-Verse x2
Verse
Pre-Chrous
Chorus
Pre-Verse x2
Chorus
Pre-Verse x2

Bridge
D|----------------------------------------------|
A|----------------------------------------------|
F|----------------------------------------------|
C|2~-----------6-------2---5----6------2---5----|
G|2~-----------6-------2---5----6------2---5----|
C|2~-----------6-------2---5----6------2---5----|
PM             .       .   .    .      .   .

Solo
D|-----------------------------------------------------------------|
A|-----------------------------------------------------------------|
F|------------8/9\8----4--------7-------------8/9\8----4--------7--|
C|-1/6-9-8-6---------2----2/5-------6-9-8-6----------2------2/5----|
G|-----------------------------------------------------------------|
C|-----------------------------------------------------------------|

Pre-Chorus then
Pre-Chorus (up a step)
D|--------------------|
A|--------------------|
F|------------777-999-|
C|000-777-666-777-999-|
G|000-777-666-555-777-|
C|000-777-666---------|

Chorus (up a step)
D|----------------------------|
A|----------------------------|
F|-11-------7--------9--------|
C|-11-X16---7--X16---9--X16---|
G|-9--------5--------7--------|
C|----------------------------|

Pre-Verse (up a step) x2
D|--------------------------|
A|--------------------------|
F|--------------------777---|
C|-000-760--000-760---777---|
G|-000-760--000-760---555---|
C|-000-760--000-760---------|
PM ...      ...

End (these are 11's not 1's, now there's a big stretch!!)
D|-----------|
A|-----------|
F|-11~-------|
C|-11~-------|
G|--9~-------|
C|-----------|





Comments


Popular Kittie tabs & chords
Wolves Bass Tabs
Funeral For Yesterday 2 Chords
Sorrow I Know Chords
Do You Think I'm A Whore? Tabs
Do You Think I'm A Whore? 1 Tabs
Immortal.. 2 Tabs
Into The Darkness 3 Tabs
Jonny Tabs
Paperdoll 4 Tabs
Until The End 1 Tabs


Song lyrics



↑ Back to top | Tablatures and chords are parodies/interpretations of the original songs. You may use it for private study, scholarship, research or language learning purposes only
© 2014 AZChords.com Contact us | Privacy policy | DMCA | Add/correct tabs | Request tabs | Top 50 tabs