» » »

Kittie, Get Off (You Can Eat A Dick) Bass tabs (ver.1)

Artists:  A B C D E F G H I J K L M N O P Q R S T U V W X Y Z # 

Get Off (You Can Eat A Dick) Bass tabs (ver.1)

Kittie Tabs
 Rating:
4/5 (4 votes)
Get Off (You Can Eat A Dick) lessons Tabs too difficult? Try these video lessons and learn fast
                Kittie
"Get Off (You Can Eat A Dick)"
Spit
100% CORRECT
Tuning: Drop C [low to high: C G C F]

**FOR BASS GUITAR**
			

INTRO:
F--------------------------------------------
C--------------------------------------------
G--------------------------------------------
C-3---3---1------1---3---3---1---------------
                                                                                                                     
VERSE:
F--------------------------------------------
C--------------------------------------------
G--------------------------------------------
C-0-----4-4-4-4-4-444-----0-----4-4-4-4-4-5--

CHORUS:

F------------------------------------------------
C------------------------------------------------
G---------------12-------12----------12-------12-
C------0-0-0-0-----0-0-0----0-0-0-0-----0-0-0----
        

BACK TO VERSE


Later... the fast part:
--------------------------------------------------
F-------------------------------------------------
C-------------------------------------------------
G-------------------------------------------------
C-2-0-2-0-2-3-2-0---------------------------------


OUTRO:
F------------------------------------------------------------------------------ 
C------------------------------------------------------------------------------ 
G------------12-----12----------12-----12-----------12-----12------------12----
C---0-0-0-0-----0------0-0-0-0------0------0-0-0-0------0-------0-0-0-0--------
            
Submit corrections

comments powered by Disqus
↑ Back to top | Kittie Bass for Get Off (You Can Eat A Dick). Lyrics for acoustic guitar and electric guitar. Tablatures and chords are parodies/interpretations of the original songs. You may use it for private study, scholarship, research or language learning purposes only