» » »

Kittie, Get Off Tabs (ver.2)

Artists:  A B C D E F G H I J K L M N O P Q R S T U V W X Y Z # 

Get Off Tabs (ver.2)

Kittie Tabs
 Rating:
4/5 (4 votes)
Get Off lessons Tabs too difficult? Try these video lessons and learn fast
                Tuning: Drop C (C G C F A D)

*= Harmonics
~= Let ring
Pm- Palm mute

Guitar One Intro/Outro
D|---------------------------------------------------------------------------||
A|---------------------------------------------------------------------------||
F|---------------------------------------------------------------------------||
C|-3-3~----3-1~--------------------------------------------------------------||
G|-3-3~----3-1~--------------------------------------------------------------||
C|-3-3~----3-1~--------------------------------------------------------------||

Guitar two intro
D|-0~-0---0--0--0--0~-0---0--0--0--0~-0---0--0--0--0~------------------------||
A|-6~-5-4--4--4--4~---5-6--6--6--6~---5-4--4--4--4~--------------------------||
F|---------------------------------------------------------------------------||
C|---------------------------------------------------------------------------||
G|---------------------------------------------------------------------------||
C|---------------------------------------------------------------------------||

Guitar 1 and 2 verse
D|---------------------------------------------------------------------------||
A|---------------------------------------------------------------------------||
F|---------------------------------------------------------------------------||
C|-0~-4*---0~-4*--5*---------------------------------------------------------||
G|-0~-4----0~-4---5----------------------------------------------------------||
C|-0~-4x8--0~-4x5-5~---------------------------------------------------------||

Chorus guitar 1 and two

D|---------------------------------------------------------------------------||
A|---------------------------------------------------------------------------||
F|-----7---7-----------------------------------------------------------------||
C|-----x---x-----------------------------------------------------------------||
G|-----5---5-----------------------------------------------------------------||
C|-00----0---00--------------------------------------------------------------||
  \PM/      \PM/

Middle/Bridge Part (heavy part)

D|---------------------------------------------------------------------------||
A|---------------------------------------------------------------------------||
F|---------------------------------------------------------------------------||
C|-20202320------------------------------------------------------------------||
G|-20202320------------------------------------------------------------------||
C|-20202320------------------------------------------------------------------||
  PM for 4x then do without for 8x I think


Middle part two
D|---------------------------------------------------------------------------||
A|---------------------------------------------------------------------------||
F|---------------------------------------------------------------------------||
C|-2---3---------------------------------------------------------------------||
G|-2---3---------------------------------------------------------------------||
C|-2x6-3---------------------------------------------------------------------||

Order:
Intro: 1x
Verse: 4x
Chorus: 8x (let ring)
Verse: 4x
Chorus: 8x (let ring)
Middle: 1x
Middle prt. 2: 4x
Outro: 1x (End on a 4th fret harmonic)
I'm not sure about the order. If it's wrong 
just listen to the CD.
            
Submit corrections

comments powered by Disqus
↑ Back to top | Kittie Tabs for Get Off. Lyrics for acoustic guitar and electric guitar. Tablatures and chords are parodies/interpretations of the original songs. You may use it for private study, scholarship, research or language learning purposes only