» » »

Forgive And Forget Tabs (ver.1)

Artists:  A B C D E F G H I J K L M N O P Q R S T U V W X Y Z # 

Forgive And Forget Tabs (ver.1)

Kittie
Rating:
0/5 (0 votes)

Hard to play? Try these video lessons and learn fast.
                -------------------------------------------------------------------------------
-------------------------------------------------------------------------------

Tuning: Dropped C

The song as Tara taught it to me :P.  Although I figured out the second part of 
the bridge (Solo Break).


Verse 1
riff 1 x2
D|------------------------------------------------------------------------|
A|------------------------------------------------------------------------|
F|------------------------------------------------------------------------|
C|---7---------------------------------7--------------------8p7-----------|
G|-3/5--------------------8p5---6p5--3/5--------------8p5---------6p5-----|
C|------000-000-000-8p0-0-----0-----------000-000-000-----0-----0---------|
PM      ___________     _     _           ___________     _     _ 

riff 2 x2
D|-------------------------------------------------------------------------|
A|-------------------------------------------------------------------------|
F|-------------------------------------------------------------------------|
C|---7------------------10-9-7-9----7-------------------8-7----------------|
G|-3/5-------------------8-7-5-7--3/5------------------------8h11p8-7h10p7-|
C|-----0-0-0-0-0-0-0-0-0--------------0-0-0-0-0-0-0-0-0--------------------|
PM     _________________              _________________ 

riff 1 x2

Pre-Chorus
D|-------------------|
A|-------------------|
F|-------------------|
C|-------------------|
G|-1--3--5--3--8-7---|
C|-1--3--5--3--8-7---|

Chorus
riff 1                               riff 2
D|----------------------------------|----------------------------------|
A|----------------------------------|----------------------------------|
F|----------------------------------|----------------------------------|
C|-7-----7-----7-----7-----7---7----|-8-----8-----8-----8-----8---8----|
G|-5-----5-----5-----5-----5---5----|-6-----6-----6-----6-----6---6----|
C|---0-0---0-0---0-0---0-0---0---0--|---0-0---0-0---0-0---0-0---0---0--|
PM   ___   ___   ___   ___   _   _      ___   ___   ___   ___   _   _

riff 3
D|----------------------------------|
A|----------------------------------|
F|----------------------------------|
C|-5-5-5-5-5-5-5-5-5-5-5-5-5-5-5-5--|
G|-3-3-3-3-3-3-3-3-3-3-3-3-3-3-3-3--|
C|----------------------------------|

riff 4
D|-----------------------------|
A|-----------------------------|
F|-----------------------------|
C|10-----9-----7-----9---------|
G|-8-----7-----5-----7-----5+--|
C|---0-0---0-0---0-0---0-0-----|
     ___   ___   ___   ___

Chorus Order:
riff 1
riff 2
riff 1
riff 3
------
riff 1
riff 2
riff 1
riff 4

Verse:
riff 1 x2
riff 2 x2

Pre-Chorus

Chorus:
riff 1
riff 2
riff 1
riff 3
------
riff 1
riff 2
riff 1
riff 4

Bridge

riff 1                           riff 2
D|------------------------------|------------------------------|
A|------------------------------|------------------------------|
F|------------------------------|------------------------------|
C|-7------5-----10------8-------|---7------5-----10------------|
G|-5------3------8------6-5h6p5-|---5------3------8-------6+---|
C|----0000---0000---0000--------|------0000---0000---0000------|
PM    ____   ____   ____               ____   ____   ____

Bridge Order:
riff 1 x3
riff 2 
riff 1 x8 (during solo)

Solo Break x3
D|-----------------------------------------------|
A|-----------------------------------------------|
F|-----------------------------------------------|
C|-5-----7-----------------5-----7---------------|
G|-3-----5-----0-----------3-----5-----5---------|
C|---0-0---0-0-0-------------0-0---0-0-5---------|
PM   ___   ___               ___   ___

4th repeat
D|----------------------------------------------------------|
A|----------------------------------------------------------|
F|----------------------------------------------------------|
C|-5-----7-----------------5-----7--------------------------|
G|-3-----5-----0-----------3-----5-----5---5-5-5-5-5-5-5-5--|
C|---0-0---0-0-0-------------0-0---0-0-5---5-5-5-5-5-5-5-5--|
PM   ___   ___               ___   ___     _______________

Bridge (during solo) riff 1 x8

Pre-Chorus
Chorus:
riff 1
riff 2
riff 1
riff 3
------
riff 1
riff 2
riff 1
riff 4

Outro w/ a little solo
D|-------------------------------------------------------------------------|
A|-------------------------------------------------------------------------|
F|-------------------------------------------------------------------------|
C|-------------------------------------------------------------------------|
G|--3---5----8-----7-----------------------------------7\------------------|
C|--3---5----8-----7-----------------------------------7\------------------|

thanks for looking at :)

************************************

| /   slide up
| \   slide down
| h   hammer-on
| p   pull-off
| ~   vibrato
| +   harmonic
| x   Mute note
| b   Bend
| pb  Pre-bend
| br  Bend release
| pbr Pre-bend release
| brb Bend release bend

************************************
            
Hard to play? Try these video lessons and learn fast. | Correct




comments powered by Disqus
↑ Back to top | Tablatures and chords are parodies/interpretations of the original songs. You may use it for private study, scholarship, research or language learning purposes only