>
 >
Falling Down

Falling Down Guitar Tabs

Kittie - Falling Down chords, tabs, tablatures, lyrics

Guitar lessons | Add/correct | Request | Top 50 tabs Artists:  A B C D E F G H I J K L M N O P Q R S T U V W X Y Z 0-9

Falling Down Guitar Tabs – Kittie

CD, Sheet music, Poster

Do you like Falling Down? Share with your friends now
Tabs
-------------------------------------------------------------------------------
-------------------------------------------------------------------------------

Tuning:Dropped C

Intro (clean guitar)x2
D|------------------------------------------------------------------------|
A|------------------------------------------------------------------------|
F|-------9--------------8--------------6--------------4-------------------|
C|-----7---7----------6---6----------4---4----------2---2-----------------|
G|---7-------7------6-------6------4-------4------2-------2---------------|
C|-7-----------7--6-----------6--4-----------4--2-----------2-------------|


Verse (Distortion)
D|------------------------------------------------------------------------|
A|------------------------------------------------------------------------|
F|------------------------------------------------------------------------|
C|-7----------7----------7----------7-------------------------------------|
G|-7----------7----------7----------7--7-8-7-5----------------------------|
C|-7--7-7-7-7-7--7-7-7-7-7--7-7-7-7-7-------------------------------------|
PM    _______    _______    _______    _______

D|------------------------------------------------------------------------|
A|------------------------------------------------------------------------|
F|------------------------------------------------------------------------|
C|-3----------3----------3----------3-------------------------------------|
G|-3----------3----------3----------3--3-5-3-2----------------------------|
C|-3--3-3-3-3-3--3-3-3-3-3--3-3-3-3-3-------------------------------------|
PM    _______    _______    _______    _______

D|------------------------------------------------------------------------|
A|------------------------------------------------------------------------|
F|------------------------------------------------------------------------|
C|-2----------2----------2----------2-------------------------------------|
G|-2----------2----------2----------2--2-3-2-0----------------------------|
C|-2--2-2-2-2-2--2-2-2-2-2--2-2-2-2-2-------------------------------------|
PM    _______    _______    _______    _______

                            Play first 2 times    3rd time play this
D|-------------------------|---------------------|------------------------|
A|-------------------------|---------------------|------------------------|
F|-------------------------|---------------------|------------------------|
C|-3----------3----------3-|---------3-----------|---------3--------------|
G|-3----------3----------3-|---------3--3-5-3-2--|---------3--------------|
C|-3--3-3-3-3-3--3-3-3-3-3-|-3-3-3-3-3-----------|-3-3-3-3-3--------------|
PM    _______    _______    _______    _______     _______


Chorus
D|------------------------------------------------------------------------|
A|------------------------------------------------------------------------|
F|------------------------------------------------------------------------|
C|-7--7--7--7--7--7--6--6--6--6--6--6--4--4--4--4--4--4--2--2--2--2--2--2-|
G|-7--7--7--7--7--7--6--6--6--6--6--6--4--4--4--4--4--4--2--2--2--2--2--2-|
C|-7--7--7--7--7--7--6--6--6--6--6--6--4--4--4--4--4--4--2--2--2--2--2--2-|

Verse
Chorus x2
Verse (ending with the 3rd repeat ending)
Chorus x2

Solo
Tara
D|------------------------------------------------------------------------|
A|------------------------------------------------------------------------|
F|---------------------------------/9--11--11h12p11/9-7---12-14-12-14br---|
C|---/7--9-9h10p9-7-6-7------------------------------------------------|
G|--------------------------7br++-----------------------------------------|
C|------------------------------------------------------------------------|

D|----------------------/12-----------/15----12h15p12----12---------------|
A|-10--12-13--12--10------------12--------------------15----15--12--------|
F|----------------------------14--14--------------------------------------|
C|------------------------------------------------------------------------|
G|------------------------------------------------------------------------|
C|------------------------------------------------------------------------|
PM                            ______

D|------------------------------------------------------------------------|
A|-12h15p12----12---------12b---------------------------------------------|
F|----------14----14-12---14b-14-12-14-12-14/16---------------------------|
C|------------------------------------------------------------------------|
G|------------------------------------------------------------------------|
C|------------------------------------------------------------------------|

Morgan (not to sure about the pattern, but it's the right chords)x2
D|------------------------------------------------------------------------|
A|------------------------------------------------------------------------|
F|------------------------------------------------------------------------|
C|------------------------------------------------------------------------|
G|-7-------------------------6--------------------------------------------|
C|-7-7-7-7-7-777-7-7-7-7-777-6-6-6-6-6-666-6-6-6-6-666--------------------|

                             1st repeat                 2 repeat
D|---------------------------|--------------------------|-----------------|
A|---------------------------|--------------------------|-----------------|
F|---------------------------|--------------------------|-----------------|
C|---------------------------|--------------------------|-2--2--2--2------|
G|-4-------------------------|-2------------------------|-2--2--2--2------|
C|-4-4-4-4-4-444-4-4-4-4-444-|-2-2-2-2-2-222-2-2-2-2-222|-2--2--2--2------|

Chorus x4

Outro (like intro only slightly different)
Extra guitar (quietly in background during outro with dist.) x2
D|------------------------------------------------------------------------|
A|------------------------------------------------------------------------|
F|------------------------------------------------------------------------|
C|--7-----6-----4------2--------------------------------------------------|
G|--7-----6-----4------2--------------------------------------------------|
C|--7-----6-----4------2--------------------------------------------------|

Clean guitar x2                                1st repeat     2nd repeat
D|---------------------------------------------|--------------|-----------|
A|---------------------------------------------|--------------|-----------|
F|-------9--------------8--------------6-------|------4-------|-4---------|
C|-----7---7----------6---6----------4---4-----|----2---2-----|-2---------|
G|---7-------7------6-------6------4-------4---|--2-------2---|-2---------|
C|-7-----------7--6-----------6--4-----------4-|2-----------2-|-2---------|

thanks for looking :)
:D

************************************

| ++  pinch harmonic
| /   slide up
| \   slide down
| h   hammer-on
| p   pull-off
| ~   vibrato
| +   harmonic
| x   Mute note
| b   Bend
| pb  Pre-bend
| br  Bend release
| pbr Pre-bend release
| brb Bend release bend

************************************





Comments


Popular Kittie tabs & chords
Charlotte Bass Tabs
Raven Bass Tabs
Around Your Heart Tabs
Immortal.. Tabs
Into The Darkness 2 Tabs
Severed 1 Tabs
Spit Tabs
Sweet Destruction Interlude Tabs
Until The End 1 Tabs
What Ive Always Wanted 2 Tabs


Song lyrics



↑ Back to top | Tablatures and chords are parodies/interpretations of the original songs. You may use it for private study, scholarship, research or language learning purposes only
© 2014 AZChords.com Contact us | Privacy policy | DMCA | Add/correct tabs | Request tabs | Top 50 tabs