» » »

Empires Tabs (ver.1)

Artists:  A B C D E F G H I J K L M N O P Q R S T U V W X Y Z # 

Empires Tabs (ver.1)

Kittie
Rating:
0/5 (0 votes)

Hard to play? Try these video lessons and learn fast.
                (Part)
-------------------------------------------------------------------------------
                             EMPIRES (PART 2) - Kittie
-------------------------------------------------------------------------------

Tuning: Drop C


Since I've also made a Guitar Pro for this and now there's a music video for it (so
I can almost check my riffs) and that means more people will be interested in it,
I made a guitar tab, can always make a drum or bass one too (wont be just as accurate
though)

PARTS:
Morgan - Rhythm guitar (left pan)
Tara - Lead guitar (right pan)
SOLO - Tara's solos (center)


Riff 1
  Morgan
D|--------------------------|
A|--------------------------|
F|--------------------------|
C|--------------------------|
G|-8-8-8-7-7-7-5-5-5-3------|
C|-8-8-8-7-7-7-5-5-5-3------|
 |
 |Tara
D|--------------------------|
A|--------------------------|
F|--------------------------|
C|--------------------------|
G|-8-8-8-7-7-7-5-5-5--------|
C|-8-8-8-7-7-7-5-5-5-3+~----|



Verse 1 x4
  Morgan
D|--------------------------------------------------------|
A|--------------------------------------------------------|
F|--------------------------------------------------------|
C|---------7---7-------101010--------9---9-------5---5----|
G|---------5---5-7h8p7-8-8-8---------7---7-------3---3----|
C|---0-000---0-----------------0-000---0---0-0-0----------|
 |PM _____   _                 _____   _   _____
 |Tara
D|--------------------------------------------------------|
A|--------------------------------------------------------|
F|--------------------------------------------------------|
C|---------7---7-------101010--------9---9-------5---5----|
G|---------5---5-7h8p7-8-8-8---------7---7-------3---3----|
C|---0-000---0-----------------0-000---0---0-0-0----------|
  PM _____   _                 _____   _   _____



Chorus x2
  Morgan
D|---------------------------------------------------------------------------|
A|---------------------------------------------------------------------------|
F|---------------------------------------------------------------------------|
C|-7---7-------7---7-------7---7-------10--10------9---9-------9---9---------|
G|-5---5-------5---5-------5---5-------8---8-------7---7-------7---7---------|
C|-------0-000-------0-000-------0-000-------0-000-------0-000-------0-000---|
 |PM     _____       _____       _____       _____       _____       _____
 |Tara
D|---------------------------------------------------------------------------|
A|---------------------------------------------------------------------------|
F|---------------------------------------------------------------------------|
C|-7---7-------7---7-------7---7-------10--10------9---9-------9---9---------|
G|-5---5-------5---5-------5---5-------8---8-------7---7-------7---7---------|
C|-------0-000-------0-000-------0-000-------0-000-------0-000-------0-000---|
  PM     _____       _____       _____       _____       _____       _____

------------------------|
------------------------|
------------------------|
-5---5------------------|
-3---3------------------|
-------0-000-0--0--0-0--|
       _______________

------------------------|
------------------------|
------------------------|
-5---5------------------|
-3---3------------------|
-------0-000-0--0--0-0--|
       _______________


Riff 1
Verse
Chorus x4


Bridge x4
  Morgan
D|---------------------------------------------------------------------------|
A|---------------------------------------------------------------------------|
F|---------------------------------------------------------------------------|
C|-7---7------------------5---5------------------10--10----------------------|
G|-5---5------------------3---3------------------8---8-----------------------|
C|-------0-0-0-0--0-0-0-0-------0-0-0-0--0-0-0-0-------0-0-0-0--0-0-0-0------|
 |PM     ________________       ________________       ________________
 |Tara
D|---------------------------------------------------------------------------|
A|---------------------------------------------------------------------------|
F|---------------------------------------------------------------------------|
C|-7---7------------------5---5------------------10--10----------------------|
G|-5---5------------------3---3------------------8---8-----------------------|
C|-------0-0-0-0--0-0-0-0-------0-0-0-0--0-0-0-0-------0-0-0-0--0-0-0-0------|
  PM     ________________       ________________       ________________

------------------------|
------------------------|
------------------------|
----------0-------------|
----1--2-----2--1-------|
-2----------------------|

------------------------|
------------------------|
----------7-------------|
----8--9-----9--8-------|
-7----------------------|
------------------------|





Solo
  Morgan
D|---------------------------------------------------------------------------|
A|---------------------------------------------------------------------------|
F|---------------------------------------------------------------------------|
C|----7---7-------7---7-------7---7-------10--10------9---9-------9---9------|
G|----5---5-------5---5-------5---5-------8---8-------7---7-------7---7------|
C|----------0-0-0-------0-0-0-------0-0-0-------0-0-0-------0-0-0-------0-0-0|
 |PM        _____       _____       _____       _____       _____       _____
 |Tara
D|---------------------------------------------------------------------------|
A|---------------------------------------------------------------------------|
F|---------------------------------------------------------------------------|
C|----7---7-------7---7-------7---7-------10--10------9---9-------9---9------|
G|----5---5-------5---5-------5---5-------8---8-------7---7-------7---7------|
C|----------0-0-0-------0-0-0-------0-0-0-------0-0-0-------0-0-0-------0-0-0|
 |PM        _____       _____       _____       _____       _____       _____
 |SOLO                                             (half)
D|-7/16-------------------------------------------13--15b---r----b------\----|
A|-----------------------------------------12--15----------------------------|
F|---------------------------------------------------------------------------|
C|---------------------------------------------------------------------------|
G|---------------------------------------------------------------------------|
C|---------------------------------------------------------------------------|



  Morgan
D|---------------------------------------------------------------------------|
A|---------------------------------------------------------------------------|
F|---------------------------------------------------------------------------|
C|-5---5-------5-----5-------------7--7-------7--7-------7--7------10-10-----|
G|-3---3-------3-----3-------------5--5-------5--5-------5--5------8--8------|
C|-------0-0-0----------0---0---0--------0-0-0-----0-0-0------0-0-0-----0-0-0|
 |PM     _____          _________        _____     _____      _____     _____
 |Tara
D|---------------------------------------------------------------------------|
A|---------------------------------------------------------------------------|
F|---------------------------------------------------------------------------|
C|-5---5-------5-----5-------------7--7-------7--7-------7--7------10-10-----|
G|-3---3-------3-----3-------------5--5-------5--5-------5--5------8--8------|
C|-------0-0-0----------0---0---0--------0-0-0-----0-0-0------0-0-0-----0-0-0|
 |PM     _____          _________        _____     _____      _____     _____
 |SOLO                                                    (10 12 13 10 12 13)
D|---------------------------------------------------------------------------|
A|---------------------------------------------------------------------------|
F|14h15p14----14h15p14/19p17p15------------------------------14--------------|
C|--------15----------------------12-----------------/-------15--------------|
G|---------------------------------------------------------------101213101213|
C|---------------------------------------------------------------------------|
  PM                                                             ____________



  Morgan
D|---------------------------------------------------------------------------|
A|---------------------------------------------------------------------------|
F|---------------------------------------------------------------------------|
C|-9---9-------9---9-------5----5----------------5---5-----------------------|
G|-7---7-------7---7-------3----3----------------3---3-----------------------|
C|-------0-0-0-------0-0-0-----------0---0---0---------0-0-0-----------------|
 |PM     _____       _____           _________         _____
D|---------------------------------------------------------------------------|
A|---------------------------------------------------------------------------|
F|---------------------------------------------------------------------------|
C|-9---9-------9---9-------5----5----------------5---5-----------------------|
G|-7---7-------7---7-------3----3----------------3---3-----------------------|
C|-------0-0-0-------0-0-0-----------0---0---0---------0-0-0-----------------|
 |PM     _____       _____           _________         _____
 |SOLO                     (15 17 18 17 15 17 14 18 17)
D|---------------------------------------------------------------------------|
A|-------------------------------1517181715----------------------------------|
F|-14----------------------14-17-----------1714------------------------------|
C|-15----------12------------------------------1817--------------------------|
G|---------------------------------------------------------------------------|
C|---------------------------------------------------------------------------|



This part can be played in two different ways, however the tapping version is
what's seen in the Empires (Part 2) music video. You can just choose whichever
you find more comfortable though.
  Morgan
D|---------------------------------------------------------------------------|
A|---------------------------------------------------------------------------|
F|---------------------------------------------------------------------------|
C|--7----7------------7----7------------7----7------------10---10------------|
G|--5----5------------5----5------------5----5------------8----8-------------|
C|----------0--0--0-----------0--0--0-----------0--0--0-----------0--0--0----|
 |PM        _______           _______           _______           _______
 |Tara
D|---------------------------------------------------------------------------|
A|---------------------------------------------------------------------------|
F|---------------------------------------------------------------------------|
C|--7----7------------7----7------------7----7------------10---10------------|
G|--5----5------------5----5------------5----5------------8----8-------------|
C|----------0--0--0-----------0--0--0-----------0--0--0-----------0--0--0----|
 |PM        _______           _______           _______           _______
 |SOLO 1
D|-15----------------15----------------15----------------15------------------|
A|----15-18-17-15-17----15-18-17-15-17----15-18-17-15-17----15-18-17-15-17---|
F|---------------------------------------------------------------------------|
C|---------------------------------------------------------------------------|
G|---------------------------------------------------------------------------|
C|---------------------------------------------------------------------------|
 |
 |SOLO 2 (Tapping) (13 to 12 can be a p or \)
 | t                 t                 t                 t
D|-15-10h13p12p10h12-15-10h13p12p10h12-15-10h13p12p10h12-15-10h13p12p10h12---|
A|---------------------------------------------------------------------------|
F|---------------------------------------------------------------------------|
C|---------------------------------------------------------------------------|
G|---------------------------------------------------------------------------|
C|---------------------------------------------------------------------------|



  Morgan
D|---------------------------------------------------------------------------|
A|---------------------------------------------------------------------------|
F|---------------------------------------------------------------------------|
C|-9---9-------9---9-------5---5-------5---5-------7-----7----------7-----7--|
G|-7---7-------7---7-------3---3-------3---3-------5-----5----------5-----5--|
C|-------0-0-0-------0-0-0-------0-0-0-------0-0-0---------0--0--0-----------|
 |PM     _____       _____       _____       _____         _______
 |Tara
D|---------------------------------------------------------------------------|
A|---------------------------------------------------------------------------|
F|---------------------------------------------------------------------------|
C|-9---9-------9---9-------5---5-------5---5-------7-----7----------7-----7--|
G|-7---7-------7---7-------3---3-------3---3-------5-----5----------5-----5--|
C|-------0-0-0-------0-0-0-------0-0-0-------0-0-0---------0--0--0-----------|
 |PM     _____       _____       _____       _____         _______
 |SOLO
D|-16----------20--------\---------------------------------------------------|
A|-------------------------15----------13--------\---------------------------|
F|---------------------------------------------------------------------------|
C|-------------------------------------------------------------------17-15---|
G|-------------------------------------------------14-12-14-15-14-15---------|
C|---------------------------------------------------------------------------|
PM                                                 ____________________



  Morgan
D|---------------------------------------------------------------------------|
A|---------------------------------------------------------------------------|
F|---------------------------------------------------------------------------|
C|---------7---7-------10--10------9---9-------9---9-------5----5------------|
G|---------5---5-------8---8-------7---7-------7---7-------3----3------------|
C|---0-0-0-------0-0-0-------0-0-0-------0-0-0-------0-0-0---------0--0--0---|
 |PM _____       _____       _____       _____       _____         _______
 |Tara
D|---------------------------------------------------------------------------|
A|---------------------------------------------------------------------------|
F|---------------------------------------------------------------------------|
C|---------7---7-------10--10------9---9-------9---9-------5----5------------|
G|---------5---5-------8---8-------7---7-------7---7-------3----3------------|
C|---0-0-0-------0-0-0-------0-0-0-------0-0-0-------0-0-0---------0--0--0---|
 |PM _____       _____       _____       _____       _____         _______
 |SOLO           (full)                     (full)
D|---------------------------------------------------------13----------------|
A|------------------13b---------------------------------------161513-13------|
F|-14h15p14-12----------12-------------15-19-17b-----r-----------------161513|
C|-------------------------------15-17---------------------------------------|
G|---------------------------------------------------------------------------|
C|---------------------------------------------------------------------------|



  Morgan
D|--------------------------|
A|--------------------------|
F|--------------------------|
C|-5----5-------------------|
G|-3----3-------------------|
C|----------0---0---0-------|
 |PM        _________
 |Tara
D|--------------------------|
A|--------------------------|
F|--------------------------|
C|-5----5-------------------|
G|-3----3-------------------|
C|----------0---0---0-------|
 |PM        _________
 |SOLO
D|--------------------------|
A|--------------------------|
F|-13-12-13-----------------|
C|----------161513----------|
G|----------------161513----|
C|--------------------------|




Chorus
  Morgan
D|---------------------------------------------------------------------------|
A|---------------------------------------------------------------------------|
F|---------------------------------------------------------------------------|
C|-7---7-------7---7-------7---7-------10--10------9---9-------9---9---------|
G|-5---5-------5---5-------5---5-------8---8-------7---7-------7---7---------|
C|-------0-000-------0-000-------0-000-------0-000-------0-000-------0-000---|
 |PM     _____       _____       _____       _____       _____       _____
 |Tara
D|---------------------------------------------------------------------------|
A|---------------------------------------------------------------------------|
F|---------------------------------------------------------------------------|
C|-7---7-------7---7-------7---7-------10--10------9---9-------9---9---------|
G|-5---5-------5---5-------5---5-------8---8-------7---7-------7---7---------|
C|-------0-000-------0-000-------0-000-------0-000-------0-000-------0-000---|
 |PM     _____       _____       _____       _____       _____       _____
 |SOLO
D|------------------------|
A|------------------------|
F|-14---------------------|
C|-15---------------------|
G|------------------------|
C|------------------------|

------------------------|
------------------------|
------------------------|
-5---5------------------|
-3---3------------------|
-------0-000-0--0--0-0--|
       _______________

------------------------|
------------------------|
------------------------|
-5---5------------------|
-3---3------------------|
-------0-000-0--0--0-0--|
       _______________



Chorus x3
  Morgan
D|---------------------------------------------------------------------------|
A|---------------------------------------------------------------------------|
F|---------------------------------------------------------------------------|
C|-7---7-------7---7-------7---7-------10--10------9---9-------9---9---------|
G|-5---5-------5---5-------5---5-------8---8-------7---7-------7---7---------|
C|-------0-000-------0-000-------0-000-------0-000-------0-000-------0-000---|
 |PM     _____       _____       _____       _____       _____       _____
 |Tara
D|---------------------------------------------------------------------------|
A|---------------------------------------------------------------------------|
F|---------------------------------------------------------------------------|
C|-7---7-------7---7-------7---7-------10--10------9---9-------9---9---------|
G|-5---5-------5---5-------5---5-------8---8-------7---7-------7---7---------|
C|-------0-000-------0-000-------0-000-------0-000-------0-000-------0-000---|
  PM     _____       _____       _____       _____       _____       _____

------------------------|
------------------------|
------------------------|
-5---5------------------|
-3---3------------------|
-------0-000-0--0--0-0--|
       _______________

------------------------|
------------------------|
------------------------|
-5---5------------------|
-3---3------------------|
-------0-000-0--0--0-0--|
       _______________




Outro (After third time, repeat and fade out)
  Morgan
D|---------------------------------------------------------------------------|
A|---------------------------------------------------------------------------|
F|---------------------------------------------------------------------------|
C|-7---7------------------5---5------------------10--10----------------------|
G|-5---5------------------3---3------------------8---8-----------------------|
C|-------0-0-0-0--0-0-0-0-------0-0-0-0--0-0-0-0-------0-0-0-0--0-0-0-0------|
 |PM     ________________       ________________       ________________
 |Tara
D|---------------------------------------------------------------------------|
A|---------------------------------------------------------------------------|
F|---------------------------------------------------------------------------|
C|-7---7------------------5---5------------------10--10----------------------|
G|-5---5------------------3---3------------------8---8-----------------------|
C|-------0-0-0-0--0-0-0-0-------0-0-0-0--0-0-0-0-------0-0-0-0--0-0-0-0------|
  PM     ________________       ________________       ________________

------------------------|
------------------------|
------------------------|
----------0-------------|
----1--2-----2--1-------|
-2----------------------|

------------------------|
------------------------|
----------7-------------|
----8--9-----9--8-------|
-7----------------------|
------------------------|



  Tara SOLO (After 2nd repeat)
D|-15----------------15----------------15----------------15------------------|
A|----15-18-17-15-17----15-18-17-15-17----15-18-17-15-17----15-18-17-15-17---|
F|---------------------------------------------------------------------------|
C|---------------------------------------------------------------------------|
G|---------------------------------------------------------------------------|
C|---------------------------------------------------------------------------|
 |
 |SOLO 2 (Tapping) (13 to 12 can be a p or \)
 | t                 t                 t                 t
D|-15-10h13p12p10h12-15-10h13p12p10h12-15-10h13p12p10h12-15-10h13p12p10h12---|
A|---------------------------------------------------------------------------|
F|---------------------------------------------------------------------------|
C|---------------------------------------------------------------------------|
G|---------------------------------------------------------------------------|
C|---------------------------------------------------------------------------|


D|-16----------------16----------------20----------------20------------------|
A|----15-18-17-15-17----15-18-17-15-17----15-18-17-15-17----15-18-17-15-17---|
F|---------------------------------------------------------------------------|
C|---------------------------------------------------------------------------|
G|---------------------------------------------------------------------------|
C|---------------------------------------------------------------------------|
 |
 |SOLO 2 (Tapping) (13 to 12 can be a p or \)
 | t                 t                 t                 t
D|-16-10h13p12p10h12-16-10h13p12p10h12-20-10h13p12p10h12-20-10h13p12p10h12---|
A|---------------------------------------------------------------------------|
F|---------------------------------------------------------------------------|
C|---------------------------------------------------------------------------|
G|---------------------------------------------------------------------------|
C|---------------------------------------------------------------------------|


END


thanks for looking :)


************************************

| /   slide up
| \   slide down
| t   tap
| h   hammer-on
| p   pull-off
| ~   vibrato
| +   harmonic
| x   Mute note
| b   Bend
| pb  Pre-bend
| br  Bend release
| pbr Pre-bend release
| brb Bend release bend

************************************
            
Hard to play? Try these video lessons and learn fast. | Correct




comments powered by Disqus
↑ Back to top | Tablatures and chords are parodies/interpretations of the original songs. You may use it for private study, scholarship, research or language learning purposes only