» » »

Da *** You Can't *** Wit Tabs (ver.1)

Artists:  A B C D E F G H I J K L M N O P Q R S T U V W X Y Z # 

Da *** You Can't *** Wit Tabs (ver.1)

Kittie
Rating:
0/5 (0 votes)

Hard to play? Try these video lessons and learn fast.
                Drop C tuning (CGCFAD)

Tab Notes

()=Let ring
pm.=Palm Mute
~=Vibrato
h=Hammer-On
p=Pull-Off

VERSE

Bass
A|--------------------------|
F|--------------------------|
C|--------------------------|
G|-----2--------3--2--------|
C|--------3--0--------3-----|

Guitar
D|------------(19)-----------------------|
A|--------------------18~--17p18h17------|
F|-16-14h16------------------------------|
C|---------------------------------------|
G|---------------------------------------|
C|---------------------------------------|

CHORUS
                       x16
D|------------------------|-------------------|
A|------------------------|-------------------|
F|------------------------|-------------------|
C|-------0-2-0-2-0-3------|--------9\0--------|
G|-------0-2-0-2-0-3------|--------9\0--------|
C|-------0-2-0-2-0-3------|--------9\0--------|
       pm...........       Play this only after the 8th time               
...............................................
Repeat 2 times

OUTRO
                             x2
D|-----------------------------|-----------------|
A|-----------------------------|-----------------|
F|-4------------5---4----------|----------4~-----|
C|-----3---0------------3------|-----------------|
G|-2---3---0----3---2---3------|----------2~-----|
C|-----3---0------------3------|-----------------|
                                let ring ...
            
Hard to play? Try these video lessons and learn fast. | Correct




comments powered by Disqus
↑ Back to top | Tablatures and chords are parodies/interpretations of the original songs. You may use it for private study, scholarship, research or language learning purposes only