» » »

Kittie, Charlottte Tabs (ver.1)

Artists:  A B C D E F G H I J K L M N O P Q R S T U V W X Y Z # 

Charlottte Tabs (ver.1)

Kittie Tabs
 Rating:
4/5 (4 votes)
Charlottte lessons Tabs too difficult? Try these video lessons and learn fast
1
                Kittie
Charlotte

d--------------|--------------------------------------
a--------------|--------------------------------------
f--------------|--------------------------------------
C-4444---------|--00-4444-----------------------------
G-4444---------|--00-4444-----------------------------
C-4444---------|--00-4444-----------------------------
Repeat 5x's      Main riff #1: Repeat a bunch of times

d------------------|----------------------------------
a------------------|----------------------------------
f------------------|----------------------------------
C-321212123333-----|---321212123----------------------
G-321212123333-----|---321212123----------------------
C-321212123333-----|---321212123----------------------
riff #2: repeat 2x's  riff #3: Repeat another bunch of times 

---back to main riff #1
---then riff#'s 2 & 3

d------------------------|----------------------------
a------------------------|----------------------------
f------------------------|----------------------------
C-7-7-7/11-11-11-12-12---|---5-55-5555----------------
G-7-7-7/11-11-11-12-12---|---5-55-5555----------------
C-5-5-5/9--9--9--10-10---|---5-55-5555----------------
repeat a couple of times

d-----------------------------------------------------
a-----------------------------------------------------
f-0-00101---------------------------------------------
C-0-00101---------------------------------------------
G-0-00101-----0-0010101-------------------------------
C-------------0-0010101-------------------------------
Repeat until end
            
Submit corrections

comments powered by Disqus
↑ Back to top | Kittie Tabs for Charlottte. Lyrics for acoustic guitar and electric guitar. 1 Tablatures and chords are parodies/interpretations of the original songs. You may use it for private study, scholarship, research or language learning purposes only