» » »

Kittie, Charlote Tabs (ver.1)

Artists:  A B C D E F G H I J K L M N O P Q R S T U V W X Y Z # 

Charlote Tabs (ver.1)

Kittie Tabs
 Rating:
4/5 (4 votes)
Charlote lessons Tabs too difficult? Try these video lessons and learn fast
1
                CHARLOTTE by KITTIE
SPIT

TUNING: CGCFAD

 h  = hammer-on
 p  = pull-off
 /  = slides
 ~  = vibrato
( ) = let ring
< > = harmonics
 r  = Rest (silence)

INTRO:
D|--------------------|--------------------|x4]
A|--------------------|--------------------|
F|--------t-----------|--------t-----------|
C|------s----4-4--4-4-|------s----4-4--4-4-|
G|----e------4-4--4-4-|----e------4-4--4-4-|
C|--r--------4-4--4-4-|--r--------4-4--4-4-|

VERSE 1:
D|-----------------------------------|x4]
A|-----------------------------------|
F|-----------------------------------|
C|-0---0-1/4-4-4--0-----<5>-1/4--4-4-|
G|-0---0-1/4-4-4--0---<5>---1/4--4-4-|
C|-0---0-1/4-4-4--0-<5>-----1/4--4-4-|

PRE-CHORUS 1:
D|---------------------------|---------------------------|
A|---------------------------|---------------------------|
F|---------------------------|---------------------------|
C|---------------------------|---------------------------|
G|---------------------------|---------------------------|
C|-3-2-1-2-1-2-1-2-1-2-2-3(3)|-3-2-1-2-1-2-1-2-1-2-2-3-r-|

CHOURS 1:
D|---------------------------|---------------------------|x4]
A|---------------------------|---------------------------|
F|---------------------------|---------------------------|
C|-3-2-1-2-1-2-1-2-1-2-2-3(3)|-3-2-1-2-1-2-1-2-1-2-2-3---|
G|-3-2-1-2-1-2-1-2-1-2-2-3(3)|-3-2-1-2-1-2-1-2-1-2-2-3---|
C|-3-2-1-2-1-2-1-2-1-2-2-3(3)|-3-2-1-2-1-2-1-2-1-2-2-3-r-|

VERSE 2:
D|-----------------------------------|x4]
A|-----------------------------------|
F|-----------------------------------|
C|-0---0-1/4-4-4--0-----<5>-1/4--4-4-|
G|-0---0-1/4-4-4--0---<5>---1/4--4-4-|
C|-0---0-1/4-4-4--0-<5>-----1/4--4-4-|

PRE-CHORUS 2:
D|---------------------------|---------------------------|
A|---------------------------|---------------------------|
F|---------------------------|---------------------------|
C|---------------------------|---------------------------|
G|---------------------------|---------------------------|
C|-3-2-1-2-1-2-1-2-1-2-2-3(3)|-3-2-1-2-1-2-1-2-1-2-2-3-r-|

CHORUS 2:
D|---------------------------|---------------------------|x4]
A|---------------------------|---------------------------|
F|---------------------------|---------------------------|
C|-3-2-1-2-1-2-1-2-1-2-2-3(3)|-3-2-1-2-1-2-1-2-1-2-2-3---|
G|-3-2-1-2-1-2-1-2-1-2-2-3(3)|-3-2-1-2-1-2-1-2-1-2-2-3---|
C|-3-2-1-2-1-2-1-2-1-2-2-3(3)|-3-2-1-2-1-2-1-2-1-2-2-3-r-|

BREAK:
D|-------------------------------------------------|
A|-------------------------------------------------|
F|-------------------------------------------------|
C|-0-----------------------------------------------|
G|-0-----------------[ Bass Backgroud ]------------|
C|-0-----------------------------------------------|

[Clean Guitar]
D|-------------------------------------------------|
A|-------------------------------------------------|
F|-7--7-7--7-7--7-7--7-7-7-------------------------|
C|-------------------------5--5-5--5-5--5-5--5-5-5-|
G|-5--5-5--5-5--5-5--5-5-5-5--5-5--5-5--5-5--5-5-5-|
C|-------------------------5--5-5--5-5--5-5--5-5-5-|

D|-------------------------------------------------|
A|-------------------------------------------------|
F|-7--7-7/1111111/12-12-12-------------------------|
C|-------------------------5--5-5--5-5--5-5--5-5-5-|
G|-5--5-5/9-9-9-9/10-10-10-5--5-5--5-5--5-5--5-5-5-|
C|-------------------------5--5-5--5-5--5-5--5-5-5-|

D|-------------------------------------------------|
A|-------------------------------------------------|
F|-7--7-7--7-7--7-7--7-7-7-------------------------|
C|-------------------------5--5-5--5-5--5-5--5-5-5-|
G|-5--5-5--5-5--5-5--5-5-5-5--5-5--5-5--5-5--5-5-5-|
C|-------------------------5--5-5--5-5--5-5--5-5-5-|

D|-------------------------------------------------|x2]
A|-------------------------------------------------|
F|-7--7-7/1111111/12-12-12-------------------------|
C|-------------------------5--5-5--5-5--5-5--5-5-5-|
G|-5--5-5/9-9-9-9/10-10-10-5--5-5--5-5--5-5--5-5-5-|
C|-------------------------5--5-5--5-5--5-5--5-5-5-|

D|-------------------------|x2]
A|-------------------------|
F|-7--7-7--7-7--7-7--7-7-7-|
C|-------------------------|
G|-5--5-5--5-5--5-5--5-5-5-|
C|-------------------------|

[Dist. Guitar]
D|-------------------------|x2]
A|-------------------------|
F|-------------------------|
C|-5--5-5--5-5--5-5--5-5-5-|
G|-5--5-5--5-5--5-5--5-5-5-|
C|-5--5-5--5-5--5-5--5-5-5-|

D|-------------------------------------------------|x4]
A|-------------------------------------------------|
F|-7--7-7/1111111/12-12-12-------------------------|
C|-7--7-7/1111111/12-12-12-5--5-5--5-5--5-5--5-5-5-|
G|-5--5-5/9-9-9-9/10-10-10-5--5-5--5-5--5-5--5-5-5-|
C|-------------------------5--5-5--5-5--5-5--5-5-5-|

D|--------------------|
A|--------------------|
F|---0/2~~-----(2)----|
C|-0------------------|
G|-0------------------|
C|-0------------------|

OUTRO:
D|-------------------------------------------|x3]
A|-------------------------------------------|
F|-7-7-7-8-8-8-7-7-7-8-8-8-------------------|
C|---------------------------0h1p0-1-1-0h1p0-|
G|-5-5-5-6-6-6-5-5-5-6-6-6---0h1p0-1-1-0h1p0-|
C|---------------------------0h1p0-1-1-0h1p0-|

D|-------------------------------------------|-----------------|
A|-------------------------------------------|-----------------|
F|-7-7-7-8-8-8-7-7-7-8-8-8-------------------|-----------------|
C|---------------------------0h1p0-1--1--1---|--(1)------------|
G|-5-5-5-6-6-6-5-5-5-6-6-6---0h1p0-1--1--1---|--(1)------------|
C|---------------------------0h1p0-1--1--1---|--(1)------------|
            
Submit corrections

comments powered by Disqus
↑ Back to top | Kittie Tabs for Charlote. Lyrics for acoustic guitar and electric guitar. 1 Tablatures and chords are parodies/interpretations of the original songs. You may use it for private study, scholarship, research or language learning purposes only