» » »

Career Suicide Bass tabs (ver.1)

Artists:  A B C D E F G H I J K L M N O P Q R S T U V W X Y Z # 

Career Suicide Bass tabs (ver.1)

Kittie
Rating:
0/5 (0 votes)

Hard to play? Try these video lessons and learn fast.
                Career Suicide 
Instrument: 5-string Bass
Tuning 5 String Standard, or use B tuning on a 4 string
<> - harmonics
* - palm mute

verses:
G|-------------------------------------------|
D|-------------------------------------------|
A|-------------------------------------------|
E|-------------------------------------------|
B|-5-5-5-1-1-1-5-5-5-1-1-1-6-6-6-6-----------|

Pre-Chorus "Don't say no...."
G|-------------------------------------------|
D|-------------------------------------------|
A|-------------------------5-----------------| 
E|---------------------5-------5-------------|
B| 1111-6-1111-6-5-5-5---5---5---5-----------|

Chorus
G|-------------------------------------------|
D|-------------------------------------------|
A|-------------------------------------------| 
E|-------------------------------------------|
B| 33-33--555-666----------------------------|

Bridge  "Don't Say No...."
G|-------------------------------------------|
D|-------------------------------------------|
A|--------------------------------5----------|
E|---------------------------5--------5------|
B|11*-11*-11*-11*-5-5-5----5----5---5---5----|

Outro "Don't go..."
G|------------------------------------------------------------------|
D|------------------------------------------------------------------|
A|------------------------------------------------------------------|
E|------------------------------------------------------------------|
B|55*-55*-55*-55*-55*-55*-55*-55*-55*-55*-55*-55*-55*-55*-55*-5* <6>|

Verse 1
Pre-chorus
Chorus 1
Verse 2
Pre-Chorus
Chorus 2
Bridge
Chorus 3
Outro
            
Hard to play? Try these video lessons and learn fast. | Correct




comments powered by Disqus
↑ Back to top | Tablatures and chords are parodies/interpretations of the original songs. You may use it for private study, scholarship, research or language learning purposes only