» » »

Brackkish Tabs (ver.1)

Artists:  A B C D E F G H I J K L M N O P Q R S T U V W X Y Z # 

Brackkish Tabs (ver.1)

Kittie
Rating:
0/5 (0 votes)

Hard to play? Try these video lessons and learn fast.
                E||----------------------------------------||------------------------------|
B||-------------17------------17------19---||------------------------------|
G||*--15-15--15-----15-15--15-----15------*||--15----15----15--15--15--15--|
D||*--------------------------------------*||------------------------------|
A||----------------------------------------||------------------------------|
D||----------------------------------------||------------------------------|


                                                            3x
|-----------------------------|-----------------------------||
|-----------------------------|-----------------------------||
|*----------------------------|----------------------------*||
|*--0-1--0-1--0-1--0-1/-6--6--|--0-1--0-1--0-1--0-1/-6--6--*||
|---0-1--0-1--0-1--0-1/-6--6--|--0-1--0-1--0-1--0-1/-6--6---||
|---0-1--0-1--0-1--0-1/-6--6--|--0-1--0-1--0-1--0-1/-6--6---||


                                                                         
------------------------|-----------------------|-----------------------|
------------------------|-----------------------|-----------------------|
*-----------------------|-----------------------|-----------------------|
*--0--0--1--0--0--------|--0--0--1--0--0--------|--0--0--1--0--0--------|
---0--0--1--0--0--------|--0--0--1--0--0--------|--0--0--1--0--0--------|
---0--0--1--0--0--------|--0--0--1--0--0--------|--0--0--1--0--0--------|
            
Hard to play? Try these video lessons and learn fast. | Correct




comments powered by Disqus
↑ Back to top | Tablatures and chords are parodies/interpretations of the original songs. You may use it for private study, scholarship, research or language learning purposes only