» » »

Wag Na Wag Mong Sasabihin Tabs (ver.3)

Artists:  A B C D E F G H I J K L M N O P Q R S T U V W X Y Z # 

Wag Na Wag Mong Sasabihin Tabs (ver.3)

Kitchie Nadal
Rating:
4/5 (4 votes)

Hard to play? Try these video lessons and learn fast.
                



Tuning: EADBGe (Standard)

Intro:

e|---5-7-4-0-|----------|-------0-|---5-7-4-0-|---------|-------0--|
B|-----------|--0h2---0-|-----0---|-----------|-0h2---0-|-----0----|
G|-----------|-----2----|---2-----|-----------|-----2---|--2-------|
D|-----------|----------|---------|-0---------|-0-------|-0--------|
A|-0---------|--4-------|-4-------|-----------|---------|----------|
E|-----------|----------|---------|-----------|---------|----------|

e|---5-7-4-0-|----------|-------0-|---5-7-4-0-|--------^|pause stanza
B|-----------|--0h2---0-|-----0---|-----------|-0h2---0-|
G|-----------|-----2----|---2-----|-----------|-----2---|
D|-----------|----------|---------|-0---------|-0-------|
A|-0---------|--4-------|-4-------|-----------|---------|
E|-----------|----------|---------|-----------|---------|

Stanza:

e|-------|-----------------|-------|-----0-|-------------|-----0-|------------|-----0---|
B|-------|-----0h2-0-0---0-|---2-2-|---0---|-2-3-2-0-----|---0---|-2-3-2-0----|---0-----|
G|-----2-|-------------2---|-------|-------|---------2-2-|-------|--------2-2-|---------|
D|---2---|-2-2-------------|-------|-------|---0---------|-0-----|---0--------|-0-------|
A|-0-----|-----------------|-4-----|-4-----|-------------|-------|------------|---------|
E|-------|-----------------|-------|-------|-------------|-------|------------|---------|

e|----------|-----------------|---0-0^-----|-0^-------------|-----0-|-------------|-----0|
B|-0^-------|-----0h2-0-0---0-|----------0-|----2-3-2-0-----|---0---|-2-3-2-0-----|---0--|
G|--------2-|-------------2---|------------|------------2-2-|-------|---------2-2-|------|
D|------2---|-2-2-------------|------------|------0---------|-0-----|---0---------|-0----|
A|----0-----|-----------------|-4------4---|----------------|-------|-------------|------|
E|----------|-----------------|------------|----------------|-------|-------------|------|

Refrain:

e|-7-7-5-0-------|---0-0-0-|-----0-|-7-7-5-|-7/9-7-5-5-|-------5-------5-------5------5-|
B|---------3-2-3-|---------|---0---|-------|-----------|-----7-------7-------6-------6--|
G|---------------|---------|-------|-------|-----------|---7-------7-------7-------7----|
D|---------------|-0-------|-0-----|-------|-----------|-0-------0-------0-------0------|
A|---4-----------|---------|-------|---4---|-----------|--------------------------------|
E|---------------|---------|-------|-------|-----------|--------------------------------|

Chorus:

e|-7-7-5-0-------|--------------0-0-2-2-|-----0---|-5-1-0-1-0--------|
B|---------3-2-3-|----2-2-2-2-3---------|-------3-|-----------3-3----|
G|---------------|----------------------|---2-----|------------------|
D|---------------|----------------0-----|-0-------|-0----------------|
A|---0-----------|-4^-------------------|---------|------------------|
E|---------------|----------------------|---------|------------------|

e|-7-7-5-0-------|----5^-5-5-5-|-7/9-7-5-7-5-5-|-------5-------5-----5--|repeat stanza hangang 
B|---------3-2-3-|-------------|---------------|-----7-------6-------6--|chorus tapos bridge
G|---------------|-------------|---------------|---7-------7-------7----|
D|---------------|-------------|---------0-----|-0-------0-------0------|
A|---0-----------|-4^----------|---------------|------------------------|
E|---------------|-------------|---------------|------------------------|

Bridge:

e|---4-4-4-4-|-0-0-7-5-5-7-5-|-------5-|---4-4-4-4-|-0-0-7-5-5-|-7-5-5-|-------5-----5--|chorus 2x then
B|-----------|---------------|-----7---|-----------|-----------|-------|-----6-------6--|intro
G|-----------|---------------|---7-----|-----------|-----------|-------|---7-------7----|
D|-----------|-----0---------|-0-------|-----------|-----0-----|-0-----|-0-------0------|
A|-4---------|---------------|---------|-4---------|-----------|-------|----------------|
E|-----------|---------------|---------|-----------|-----------|-------|----------------|

Legend:

| ^ pause 2 counts
| /  slide up
| h  hammer-on

==============================================================================


==============================================================================
            
Hard to play? Try these video lessons and learn fast. | Correct




comments powered by Disqus
↑ Back to top | Tablatures and chords are parodies/interpretations of the original songs. You may use it for private study, scholarship, research or language learning purposes only