» » »

Torete Chords (ver.1)

Artists:  A B C D E F G H I J K L M N O P Q R S T U V W X Y Z # 

Torete Chords (ver.1)

Kitchie Nadal
Rating:
5/5 (2 votes)

Hard to play? Try these video lessons and learn fast.
                copy and paste it to your microsoft word or any word editing program and change the font
to COURIER NEW for BEST VIEW of the tab.

Tuning: E-A-D-G-B-E

Intro (2x
e|--2---2---2h3—2h3p2--------2---2------------2---5--------------3--3--3-----|
B|------3-------------3------2---2------------3---3—2h3p2--------3-|3---3----|
G|------2--------------------2---2------------2---2-------2------4-V4----4---|
D|--0-------0----------------------------------------------------------------|
A|-------------------------------------0-1-1\2----2--------------------------|
E|------------------------1\2—---2---2----------------------0-1\3------------|
    
e|--2---2---2h3—2h3p2--------2---2------------2---2-2------------3--3---3----|
B|------3-------------3------2---2------------3---3-3------------3--3---3----|
G|------2--------------------2---2------------4---4-4------------4--4---4----|
D|--0-------0-------------------------------------4-4---------------5---5----|
A|-------------------------------------0-1-1\2----2-2---------------5---5----|
E|------------------------1\2—---2---2----------------------0-1\3------------|

Verse1
              D      F#m    Bm               G
Sandali na lang         Maari bang pagbigyan
          D     F#m       Bm            G       
Aalis na nga           Maaari bang hawakan ang 
   D        F#m    Bm         G                         
iyong mga kamay    Sana ay maabot ng langit ang 
   D        F#m    Bm         G break  
iyong mga ngiti    Sana ay masilip 

Refrain: 
D            F#m      Bm       G 
Wag kang mag-alala    Di ko ipipilit sa 'yo
D        F#m         Bm           G  
Kahit na lilipad ang isip ko'y torete sa 'yo 

Verse2: every chords (break) 
D        F#m                      Bm         G
Ilang gabi pa nga lang     Nang tayo'y pinagtagpo 
D               F#m          Bm                G 
Na parang may tumulak     Nanlalamig, nanginginig na ako 
D             F#m         Bm         G
Akala ko nung una     May bukas ang ganito 
D             F#m           Bm               G        Cm. . . 
Mabuti pang umiwas   Pero salamat na rin at nagtagpo 

Chorus
   D      F#m     Bm   G
Torete, torete, torete ako
   D      F#m     Bm      G 
Torete, torete, torete sa 'yo 

Bass line. . .mild strum. . . 
Refrain: 
D            F#m      Bm       G 
Wag kang mag-alala    Di ko ipipilit sa 'yo
D        F#m         Bm           G       Cm  
Kahit na lilipad ang isip ko'y torete sa 'yo

   D      F#m     Bm   G
Torete, torete, torete ako
   D      F#m     Bm   G 
Torete, torete, torete ako 
        
Adlib

e|--10b---------10-9-10-9-7--------------------------------------------------|
B|------10b-----------------10b-----10b—--7h8-7h8-7h8-7h8-7h8-7h8------------|
G|------------7-----------------7b-------------------------------------------|
D|---------------------------------------------------------------------------|
A|---------------------------------------------------------------------------|
E|---------------------------------------------------------------------------|

e|----------------------10-9-10-9-7------------------------------------------|
B|-7h8p7---------10b----------------10b-----10b---7h8-7h8-7h8-7h8-7h8-7h8----|
G|------7----7b------7------------------7b-----------------------------------|
D|---------------------------------------------------------------------------|
A|---------------------------------------------------------------------------|
E|---------------------------------------------------------------------------|

e|---------------------------------------------------------------------------|
B|-7h8p7---------------------------------------------------------------------|
G|-------7-------------------------------------------------------------------|
D|---------------------------------------------------------------------------|
A|---------------------------------------------------------------------------|
E|---------------------------------------------------------------------------|
Chorus
   D      F#m     Bm   G
Torete, torete, torete ako
   D      F#m     Bm      G 
Torete, torete, torete sa 'yo

e|--10b----------10-9-10-9-10\12-10b-----------------------------------------|
B|------10b----------------------------------10b--8-7-8b---------------------|
G|------------7-----------------------5\7b-----------------------------------|
D|---------------------------------------------------------------------------|
A|---------------------------------------------------------------------------|
E|---------------------------------------------------------------------------|
CHORDS
e|--2----2----2----3----3----------------------------------------------------|
B|--3----2----3----3----3----------------------------------------------------|
G|--2----2----4----0----4----------------------------------------------------|
D|-------4----4----0----5----------------------------------------------------|
A|-------4----2----2----5----------------------------------------------------|
E|-------2----x----3----3----------------------------------------------------|
    D    F#m  Bm   G or G



| /  slide up
| \  slide down
| B  hammer-on
| p  pull-off
| x  Mute note
            
Hard to play? Try these video lessons and learn fast. | Correct




comments powered by Disqus
↑ Back to top | Tablatures and chords are parodies/interpretations of the original songs. You may use it for private study, scholarship, research or language learning purposes only