» » »

Kitchie Nadal, Pag Ibig Tabs (ver.1)

Artists:  A B C D E F G H I J K L M N O P Q R S T U V W X Y Z # 

Pag Ibig Tabs (ver.1)

Kitchie Nadal Tabs
Rating:
4/5 (2 votes)
Pag Ibig lessons Tabs too difficult? Try these video lessons and learn fast
                Band: Kitchie Nadal




Intro

guitar1
E-----------------------------------------------------|
B-----------------------------------------------------|
G----7--11--12---7-11-12---7--11--12---7-10-11-12-----|
D-----------------------------------------------------|  
A-----------------------------------------------------|
E-----------------------------------------------------|

guitar2
E----------------------------------|
B----------------------------------|
G----------------------------------|
D----------------------------------|  
A--------7777------7777------------|
E---5555------5555-----------------|

guitar1
E-----------------------------------------------------|
B-----------------------------------------------------|
G----7--11--12---7-11-12---7--11--12---7-10-11-12-----|
D-----------------------------------------------------|  
A-----------------------------------------------------|
E-----------------------------------------------------|


verse1
E--------------------------------------------------------------|
B--------------------------------------------------------------|
G--------------------------------------------------------------|
D--------------------------------------------------------------|  
A--------7777-------5555-------5555------5555---7777--5555-----|
E---5555-------7777------7777-------7777--------------------5--|
nang tangan ng nanay
ng munting mga kamay
ikay tuwang tuwa
panatag ang loob
sa damdaming ikay mahal

verse2
E--------------------------------------------------------------|
B--------------------------------------------------------------|
G--------------------------------------------------------------|
D--------------------------------------------------------------|  
A--------7777-------5555-------5555------5555---7777--5555-----|
E---5555-------7777------7777-------7777--------------------5--|
nung nakilala mo 
ang una mong sinta
umapaw ang saya
at siyay ibang iba
at sinasamsam ang bawat gunita


chorus
E--------------------------------------------------------------------|
B--------------------------------------------------------------------|
G---------9999--------7777--------7777--------7777--9999--7777-------|
D---7777--9999--9999--7777--9999--7777--9999--7777--9999--7777---7---|  
A---7777--7777--9999--5555--9999--5555--9999--5555--7777--5555---7---|
E---5555--------7777--------7777--------7777---------------------5---|
di mo malimutan kung kaylan nagsimula
matuto kung papano magmahal
at di mo malimutan kung kaylan mo natikman
ang una mong halik 
yakap na napakahigpit
pag-ibig na tunay
hanggang langit

E------------------------------|
B---11--9----------------------|
G---------11--9---9h11p9-------|
D------------------------------|  
A------------------------------|
E------------------------------|

verse3
E--------------------------------------------------------------|
B--------------------------------------------------------------|
G--------------------------------------------------------------|
D--------------------------------------------------------------|  
A--------7777-------5555-------5555------5555---7777--5555-----|
E---5555-------7777------7777-------7777--------------------5--|
nang tayo'y nagkakilala
ng hindi sinasadya
ikaw lang ang napansin
nahuli sa isang tingin
at sa pagbati mong napakalambing

solo
E--------------------------------------------------------------------|
B-9-11-13-11--9h11-11h13-13h15-15h17-17h1919-1719151713151517171920^-|
G--------------------------------------------------------------------|
D--------------------------------------------------------------------|  
A--------------------------------------------------------------------|
E--------------------------------------------------------------------|

chorus
E--------------------------------------------------------------------|
B--------------------------------------------------------------------|
G---------9999--------7777--------7777--------7777--9999--7777-------|
D---7777--9999--9999--7777--9999--7777--9999--7777--9999--7777---7---|  
A---7777--7777--9999--5555--9999--5555--9999--5555--7777--5555---7---|
E---5555--------7777--------7777--------7777---------------------5---|
di mo malimutan kung kaylan nagsimula
matutong ikaw lang ang mahalin
at di mo malimutan kung kaylan mo natikman
ang una mong halik
yakap na napakahigpit
pag-ibig na tunay
hanggang langit


repeat chorus

       -END-

======================================================================
lyrics: PAG-IBIG
        kitchie nadal

verse1
nang tangan ng nanay
ng munting mga kamay
ikay tuwang tuwa
panatag ang loob
sa damdaming ikay mahal

verse2
nung nakilala mo 
ang una mong sinta
umapaw ang saya
at siyay ibang iba
at sinasamsam ang bawat gunita

CHORUS1:
di mo malimutan kung kaylan nagsimula
matuto kung papano magmahal
at di mo malimutan kung kaylan mo natikman
ang una mong halik 
yakap na napakahigpit
pag-ibig na tunay
hanggang langit

verse3
nang tayo'y nagkakilala
ng hindi sinasadya
ikaw lang ang napansin
nahuli sa isang tingin
at sa pagbati mong napakalambing

CHORUS2:
di mo malimutan kung kaylan nagsimula
matutong ikaw lang ang mahalin
at di mo malimutan kung kaylan mo natikman
ang una mong halik
yakap na napakahigpit
pag-ibig na tunay
hanggang langit

REPEAT CHORUS1:

==================================================================
            

comments powered by Disqus
↑ Back to top | Kitchie Nadal Tabs for Pag Ibig. Lyrics for acoustic guitar and electric guitar. Tablatures and chords are parodies/interpretations of the original songs. You may use it for private study, scholarship, research or language learning purposes only