» » »

Kitchie Nadal, Ligaya Tabs (ver.1)

Artists:  A B C D E F G H I J K L M N O P Q R S T U V W X Y Z # 

Ligaya Tabs (ver.1)

Kitchie Nadal Tabs
Rating:
0/5 (0 votes)
Ligaya lessons Tabs too difficult? Try these video lessons and learn fast
                Ligaya By Kitchie Nadal

Tuning: Standard

Intro:

E|-0~--0~-----11-----0~--6~--0~--2-----3-----|
B|-5~--7~--11----10--5~------7~----3-----3---|
G|-6~--7~------------6~------7~------4-----4-|
D|-7~--7~------------7~------7~--------------|
A|-------------------------------------------|
E|-------------------------------------------|

Verse:

E|-0~------------0~------0~-------0~----------------------------------------|
B|-5~------------7~--8~--5~-------7~--4/9-9--5/10-10--6/11-11--5/9-9--4/7-7-|
G|-6~--6/7--5/7--7~------6~--6/7--7~----------------------------------------|
D|-7~------------7~------7~-------7~----------------------------------------|
A|--------------------------------------------------------------------------|
E|--------------------------------------------------------------------------|

E|--------2------3------0~--0~--0~----0~------------------------------------|
B|----------3------3----5~--7~--5~--7-7~--5-6-8----9~--5/10-10--6/11--------|
G|-5/8-8------4------4--6~--7~--6~----7~---------7--------------------------|
D|----------------------7~--7~--7~----7~------------------------------------|
A|--------------------------------------------------------------------------|
E|--------------------------------------------------------------------------|

Chorus:

E|-------------0-0-0-0-0-0-0-0--1-1-1-1-1-1-1-1--0-0-0-0-0-0-0-0--1-1-1-1-1-|
B|--------13---1-1-1-1-1-1-1-1--1-1-1-1-1-1-1-1--1-1-1-1-1-1-1-1--1-1-1-1-1-|
G|-11--11------0-0-0-0-0-0-0-0--2-2-2-2-2-2-2-2--0-0-0-0-0-0-0-0--2-2-2-2-2-|
D|-------------2-2-2-2-2-2-2-2--3-3-3-3-3-3-3-3--2-2-2-2-2-2-2-2--3-3-3-3-3-|
A|-------------3-3-3-3-3-3-3-3--3-3-3-3-3-3-3-3--3-3-3-3-3-3-3-3--3-3-3-3-3-|
E|-------------0-0-0-0-0-0-0-0--1-1-1-1-1-1-1-1--0-0-0-0-0-0-0-0--1-1-1-1-1-|

E|-1-1-1--0-0-0-0-0-0-0-0--1-1-1-1-1-1-1-1--0-0-0-0-0-0-0-0--0-0-0-0-0-0-0-|
B|-1-1-1--1-1-1-1-1-1-1-1--1-1-1-1-1-1-1-1--0-0-0-0-0-0-0-0--0-0-0-0-0-0-0-|
G|-2-2-2--0-0-0-0-0-0-0-0--2-2-2-2-2-2-2-2--0-0-0-0-0-0-0-0--1-1-1-1-1-1-1-|
D|-3-3-3--2-2-2-2-2-2-2-2--3-3-3-3-3-3-3-3--2-2-2-2-2-2-2-2--2-2-2-2-2-2-2-|
A|-3-3-3--3-3-3-3-3-3-3-3--3-3-3-3-3-3-3-3--2-2-2-2-2-2-2-2--2-2-2-2-2-2-2-|
E|-1-1-1--0-0-0-0-0-0-0-0--1-1-1-1-1-1-1-1--0-0-0-0-0-0-0-0--0-0-0-0-0-0-0-|

E|-0--0-0-0-0-0-0-0-0--1~--2~--4~--3~--3-3-3-3-3-3-3-3-3-3-3-3-3-3-3-3-|
B|-0--0-0-0-0-0-0-0-0--1~--2~--4~--3~--3-3-3-3-3-3-3-3-3-3-3-3-3-3-3-3-|
G|-1--0-0-0-0-0-0-0-0--2~--3~--5~--4~--4-4-4-4-4-4-4-4-4-4-4-4-4-4-4-4-|
D|-2--2-2-2-2-2-2-2-2--3~--4~--6~--5~--5-5-5-5-5-5-5-5-5-5-5-5-5-5-5-5-|
A|-2--2-2-2-2-2-2-2-2--3~--4~--6~--5~--5-5-5-5-5-5-5-5-5-5-5-5-5-5-5-5-|
E|-0--0-0-0-0-0-0-0-0--1~--2~--4~--3~--3-3-3-3-3-3-3-3-3-3-3-3-3-3-3-3-|

Ulit-ulitin nyo nlng po yan for every verses and chorus
            
Submit corrections

comments powered by Disqus
↑ Back to top | Kitchie Nadal Tabs for Ligaya. Lyrics for acoustic guitar and electric guitar. Tablatures and chords are parodies/interpretations of the original songs. You may use it for private study, scholarship, research or language learning purposes only