>
 >
Fire

Fire Bass Tabs

Kitchie Nadal - Fire chords, tabs, tablatures, lyrics

Guitar lessons | Add/correct | Request | Top 50 tabs Artists:  A B C D E F G H I J K L M N O P Q R S T U V W X Y Z 0-9

Fire Bass Tabs – Kitchie Nadal

CD, Sheet music, Poster

Do you like Fire? Share with your friends now
Bass TabsChordsChords v2TabsUkulele
song title:fire

"this tab goes to FORCE OF WILL BAND,TEODORO ZAIDE BAND,EL TANGUEROS,to all history 
of R.T.U"and last but not the least,to my one and only inspiration..ms."manilyn soriano"

intro:

g|---------------4-|-----------4-|
d|--6-4-6-6-4-666-6|--6-4-6-6-4--| repeat this 2x
a|-----6-----4-----|-----6-------|
e|-----------------|-------------|

verse:

g|----------------|
d|----------------|
a|---------44p-4p-|
e|--1/4-44--------|

tapos intro ulit:

g|---------------4-|-----------4-|
d|--6-4-6-6-4-666-6|--6-4-6-6-4--| repeat this 2x
a|-----6-----4-----|-----6-------|
e|-----------------|-------------|

verse ulit:

g|----------------|
d|----------------|
a|---------44p-4p-|
e|--1/4-44--------|

refain:

g|----------------------|----------------------|
d|----------------------|----------------------| repeat this altenately
a|--666-66666--66666666-|--6-8-9-4-44-66666666-| 2x nyo repeat this..
e|----------------------|----------------------|


chorus:

g|--------------------------|
d|--------------------------|  ulit-ulitin nyo to then pag-narinig nyo na
a|--777-33333------10101010-|  ung "fire" use this tab below
e|------------3333----------|

g|----------------------------|
d|----------------------------|
a|--7-9-10--------------5-555-|  repeat this 4x then this tab below
e|----------8-888-3-5-7-------|

g|-------------------|
d|-------------------|
a|--5555555555-77777-|
e|-------------------|

then after that:
repeat intro
repeat verse
repeat refrain
repeat chorus

outro:
puro E lang ung bass nyo..

-yan that's all folks..hope na makatulong sa inyo yan..ang ganda nung song  na
e2..first tym ko palng narinig na-astigan na ako..cguro dun sa bass..if
u have questions,just send me message at my friendster





Comments


Popular Kitchie Nadal tabs & chords
Ligaya 1 Chords
Pangarap Ko Chords
Bulong 3 Tabs
Makulay Na Buhay Tabs
Same Ground 5 Tabs
Breathe Ukulele
Buwan Ukulele
Greatest Day 2 Ukulele
Highway Ukulele
Love Ko To Ukulele


Song lyrics



↑ Back to top | Tablatures and chords are parodies/interpretations of the original songs. You may use it for private study, scholarship, research or language learning purposes only
© 2014 AZChords.com Contact us | Privacy policy | DMCA | Add/correct tabs | Request tabs | Top 50 tabs