>
 >
Bulong 1

Bulong 1 Guitar Tabs

Kitchie Nadal - Bulong 1 chords, tabs, tablatures, lyrics

Guitar lessons | Add/correct | Request | Top 50 tabs Artists:  A B C D E F G H I J K L M N O P Q R S T U V W X Y Z 0-9

Bulong 1 Guitar Tabs – Kitchie Nadal

CD, Sheet music, Poster

Do you like Bulong 1? Share with your friends now
Bass TabsChordsChords v2Chords v3TabsTabs v2Tabs v3Tabs v4Tabs v5Ukulele
                       "BULONG" BY KITCHIE NADAL

         NOTE: FOR THOSE WHO EMAIL ME AND REQUESTING FOR TABS....
                 "PUTANG INA SALAMAT SA TIWALA NYO?!?!

     Si kitchie crush ko n yan,,, na love at first sight ako s knya
   nung nkita ko sya s may eastwood... she's so cute and specially kissable    
   lips pa.... Kya nging favorite ko n sya ngayon,,, I don't hear music like 
   this before,,, ilike hard rock tlaga,,, well sya lng ang nkgbago sa  
   music type ko,,, kya bukod sa rock music, I love kitchie's music n rin,,, 
   kya mahal ko na yan si kitchie eh... hehehe!!!    

              
                     PLEASE CHECK THIS OUT!!!
 chords: D E G D

Intro:  guitarI X2  
E|-2-2-2-2-2-2h3-2---4-4-4-4-4-4h5-4---7-7-7-7-7-7h8-7---2-2-2-2-2-2h3-2-|
B|-3-3-3-3-3-3---3---5-5-5-5-5-5---5---8-8-8-8-8-8---8---3-3-3-3-3-3---3-|
G|-2-2-2-2-2-2---2---4-4-4-4-4-4---4---7-7-7-7-7-7---7---2-2-2-2-2-2---2-|
D|-0-0-0-0-0-0---0---0-0-0-0-0-0---0---0-0-0-0-0-0---0---0-0-0-0-0-0---0-|
A|-----------------------------------------------------------------------|
E|-----------------------------------------------------------------------|



Intro: guitarII X2
E|-----------------------(let ring)-------------|
B|-(let ring)-(let ring)------------(let ring)--|
G|---7---------9-----------------------7--------|
D|---7---------9------------5----------7--------|
A|---5---------7------------5----------5--------|
E|--------------------------3-------------------|

  Ikaw ba'y nalulungkot...      then proceed here                            
  (as many times)             guitarII w/thick dist.
E|----------------            -4-4h5-4-2-4-|
B|-------------3--            -5-5---5-3-5-|
G|-7-x-x-x-5-5-3--            -4-4---4-2-4-|
D|-7-x-x-x 5-5-3--            -------------|
A|-5-x-x-x-3-3----            -------------|
E|----------------            -------------|

Hoy! kaibigan ko...   guitarI X2  
E|-2-2-2-2-2-2h3-2---4-4-4-4-4-4h5-4---7-7-7-7-7-7h8-7---2-2-2-2-2-2h3-2-|
B|-3-3-3-3-3-3---3---5-5-5-5-5-5---5---8-8-8-8-8-8---8---3-3-3-3-3-3---3-|
G|-2-2-2-2-2-2---2---4-4-4-4-4-4---4---7-7-7-7-7-7---7---2-2-2-2-2-2---2-|
D|-0-0-0-0-0-0---0---0-0-0-0-0-0---0---0-0-0-0-0-0---0---0-0-0-0-0-0---0-|
A|-----------------------------------------------------------------------|
E|-----------------------------------------------------------------------|

Hoy! kaibigan ko...   guitarII X2( you can strum this also)
E|----------------------(let ring)--------------|
B|-(let ring)-(let ring)------------(let ring)--|
G|---7---------9------------------------7-------|
D|---7---------9-----------5------------7-------|
A|---5---------7-----------5------------5-------|
E|-------------------------3--------------------|

          guitarI X2  
E|-2-2-2-2-2-2h3-2---4-4-4-4-4-4h5-4---7-7-7-7-7-7h8-7---2-2-2-2-2-2h3-2-|
B|-3-3-3-3-3-3---3---5-5-5-5-5-5---5---8-8-8-8-8-8---8---3-3-3-3-3-3---3-|
G|-2-2-2-2-2-2---2---4-4-4-4-4-4---4---7-7-7-7-7-7---7---2-2-2-2-2-2---2-|
D|-0-0-0-0-0-0---0---0-0-0-0-0-0---0---0-0-0-0-0-0---0---0-0-0-0-0-0---0-|
A|-----------------------------------------------------------------------|
E|-----------------------------------------------------------------------|

  guitarII X2
E|-----------------------(let ring)-------------|
B|-(let ring)-(let ring)------------(let ring)--|
G|---7---------9-----------------------7--------|
D|---7---------9------------5----------7--------|
A|---5---------7------------5----------5--------|
E|--------------------------3-------------------|

 Tumatakbong oras...
E|-------------------------------------------------------------------------|
B|-(let ring)-(let ring)---------------------------------------------------|
G|--5----------7---------5-5-5-7-7-7-7--5-5-5-7-7-7-7--5-5-5-7-7-7-7-7-7-7-|
D|--5----------7---------5-5-5-7-7-7-7--5-5-5-7-7-7-7--5-5-5-7-7-7-7-7-7-7-|
A|--3----------5---------3-3-3-5-5-5-5--3-3-3-5-5-5-5--3-3-3-5-5-5-5-5-5-5-|
E|-------------------------------------------------------------------------|
 
Solo:
E|-------------  ----------------------------------|
B|-9-8b----11--  ----------------------------------|
G|------12-----  --9b-------------------(harmonics)|
D|-------------  ------7-6---7-------------(5)-----|
A|-------------  ----------9---7-9-7-5-7-6---------|
E|-------------  ----------------------------------|

E|------------------------------------15b-----------------|
B|--13b-12b-14-12--13-12----11-12-11--14b--16-h17-14---14-|
G|-----------------------12--------------------------15---|
D|--------------------------------------------------------|
A|--------------------------------------------------------|
E|--------------------------------------------------------|

E|--------------------------------------------------------|
B|-10h11----10-8-9-7-7h9-7-8-7-8-9------------------------|
G|-------11------------------------9-7-9-----5b(tremolo)--|
D|---------------------------------------9-7--------------|
A|--------------------------------------------------------|
E|--------------------------------------------------------|

E|---------------  ----------------------|
B|----9/10--7----  ---------------8------|
G|--9---------9--  ---------11b-9--------|
D|---------------  --11b--9--------------|
A|---------------  ----------------------|
E|---------------  ----------------------|

Hoy! kaibigan ko...   guitarI X2  
E|-2-2-2-2-2-2h3-2---4-4-4-4-4-4h5-4---7-7-7-7-7-7h8-7---2-2-2-2-2-2h3-2-|
B|-3-3-3-3-3-3---3---5-5-5-5-5-5---5---8-8-8-8-8-8---8---3-3-3-3-3-3---3-|
G|-2-2-2-2-2-2---2---4-4-4-4-4-4---4---7-7-7-7-7-7---7---2-2-2-2-2-2---2-|
D|-0-0-0-0-0-0---0---0-0-0-0-0-0---0---0-0-0-0-0-0---0---0-0-0-0-0-0---0-|
A|-----------------------------------------------------------------------|
E|-----------------------------------------------------------------------|

Hoy! kaibigan ko...   guitarII X2(you can strum this also)
E|----------------------(let ring)--------------|
B|-(let ring)-(let ring)------------(let ring)--|
G|---7---------9------------------------7-------|
D|---7---------9-----------5------------7-------|
A|---5---------7-----------5------------5-------|
E|-------------------------3--------------------|

Solo outro:
E|-------------------------------------  ---------------|
B|-10/12b---9/11b--11-12-9---------15b-  ----------12b--|
G|--------------------------11b--------  -15-13-14------|
D|-------------------------------------  ---------------|
A|-------------------------------------  ---------------|
E|-------------------------------------  ---------------|

E|-----------------------------------------|
B|-14--11--11-10----9b---------------------|
G|---------------12----10b-8---------------|
D|-----------------------------------------|
A|-----------------------------------------|
E|-----------------------------------------|

               <<<>>> 





Comments


Popular Kitchie Nadal tabs & chords
Bulong Bass Tabs
Wag Na Wag Mong Sasabihin 1 Bass Tabs
Highway Chords
Love Ko To Chords
Majika Chords
Pag Ibig Chords
Torete 2 Chords
Wag Na Wag Mong Sasabihin 1 Tabs
Wag Na Wag Mong Sasabihin 4 Tabs
Majika Ukulele


Song lyrics



↑ Back to top | Tablatures and chords are parodies/interpretations of the original songs. You may use it for private study, scholarship, research or language learning purposes only
© 2014 AZChords.com Contact us | Privacy policy | DMCA | Add/correct tabs | Request tabs | Top 50 tabs