>
 >
Charisma

Charisma Guitar Tabs

Kiss - Charisma chords, tabs, tablatures, lyrics

Guitar lessons | Add/correct | Request | Top 50 tabs Artists:  A B C D E F G H I J K L M N O P Q R S T U V W X Y Z 0-9

Charisma Guitar Tabs – Kiss

CD, Sheet music, Poster

Do you like Charisma? Share with your friends now
Tabs
Kiss - Charisma

  intro over bass line                                          "Is it my..."
e:---------------------------------------------------------------------------|
B:---------------------------------------------------------------------------|
G:------------------------------------------------5---7---5------------------|
D:---------5---2------5---4---2-----5---4---------5---5---5------------------|
A:-----5---3---0------3---2---0-----3---2---------3---5---3------0-0-0-0-0-0-|
E:-----3------------------------------------3--------------------------------|




                                                                repeat
e:---------------------------------------------------------------------------|
B:---------------------------------------------------------------------------|
G:---------------------------------------------------------------------------|
D:---------------------------------------------------------------------------|
A:0-0-----------------0-0-0-0-0-0-0-0------------------3---3-3---3-3-3---5---|
E:----0-0-0-0-0-0-0-0-----------------0-0-0-0-0-0-0-0--1---1-1---1-1-1---3---|




  "What is my...."
e:---------------------------------------------------------------------------|
B:---------------------------------------------------------------------------|
G:---------------------------------------------------------------------------|
D:-------------------------5---------------------------5--4--2---------------|
A:0-0-0-0-0-0-0-0-0-0-0-5--3--5--0-0-0-0-0-0-0-0-0-0-0-3--2--0---------------|
E:----------------------3-----3---------------------------------1-1-1-1-1-1-1|


                                                    


e:-------------------------------------------------|
B:-------------------------------------------------|
G:----------------------------------------5--7--5--|
D:----------5--4--------------------------5--7--5--|
A:----------3--2---0-0-0-0-0-0-0-0-0-0-0--3--5--3--|
E:-1-1-1-1-------3---------------------------------|




   interlude  "What is my..."
e:---------------------------------------------------------------------------|
B:--------------------------------------------------------------------7-7b-7~|
G:---------------------------------------------------------------------------|
D:------------------------------2-2-2-2-2-2-2-2------------------------------|
A:-------------5-5-5-5-5-5-5-5--0-0-0-0-0-0-0-0--3-3-3-3-3-3-3-3--5-5-5-5-5-5|
E:-------------3-3-3-3-3-3-3-3-------------------1-1-1-1-1-1-1-1--3-3-3-3-3-3|





e:------------------------------------------------------------------------|
B:~-----------------------------------------------------------------------|
G:------------------------------------------------------------------------|
D:------5-5-5-5-5-5-5-5--7-7-7-7-7-7-7-7--------------------------9-9-9---|
A:-5-5--3-3-3-3-3-3-3-3--5-5-5-5-5-5-5-5--7-7-7-7-7-7-7-7-7-7-7---7-7-7---|
E:-3-3------------------------------------0-0-0-0-0-0-0-0-0-0-0---0-0-0---|
                                                      etc...




e:---------------------------------------------------------------------------|
B:---------------------------------------------------------------------------|
G:----5/7~----5/7~~---7b--7b--7b--7b--7b-7b-7b-7b-7b-7b---7/5--5-------------|
D:-----------------------------------------------------------7----7--7-------|
A:---------------------------------------------------------------------0-3~--|
E:---------------------------------------------------------------------------|





e:---------------------------------------------------------------------8-----|
B:--------------------------------------------------------------8------------|
G:-----------------5~---------7b/7-5--7-7b/7-5--7-7b/7-5---7b~~~~--7b~~~~---7|
D:-------5-7-7/5------7/5/7--------------------------------------------------|
A:----/7--------7------------------------------------------------------------|
E:---------------------------------------------------------------------------|


                                                  


e:-------------8----------------------------------|
B:----8-------------------------------------------|
G:b~~~~~---7b~~~~--7b~~--5/7-7-7/5--5/7-7-7-7-7b~~|
D:--------------------------------7---------------|
A:------------------------------------------------|
E:------------------------------------------------|

Enjoy!





Comments


Popular Kiss tabs & chords
I Love It Loud Bass Tabs
Love Gun 2 Bass Tabs
Modern Day Delilah 2 Bass Tabs
Tunnel Of Love Bass Tabs
Rock And Roll All Nite Chords
She Chords
Rocket Ride Tabs
Shes So European Tabs
Strange Ways 2 Tabs
View From A Hill Tabs


Song lyrics



↑ Back to top | Tablatures and chords are parodies/interpretations of the original songs. You may use it for private study, scholarship, research or language learning purposes only
© 2014 AZChords.com Contact us | Privacy policy | DMCA | Add/correct tabs | Request tabs | Top 50 tabs