» » »

Ek Hasina Thi Tabs (ver.1)

Artists:  A B C D E F G H I J K L M N O P Q R S T U V W X Y Z # 

Ek Hasina Thi Tabs (ver.1)

Kishore Kumar
Rating:
5/5 (2 votes)

Tabs too difficult? Try these video lessons and learn fast.
                Hi Fellows This is my first tab on this site..
Just Play it right from starting till end as it is..
I mean that's how I play..
:-D

Intro..


E-------------------------------|
B-7-5-7-8---7-5-7-8---7-5-7-8-5-|
G-------------------------------|
D-------------------------------|
A-------------------------------|
E-------------------------------|

E---------------------------|
B-4/5-5---7-4---4-5-7-6/7-5-|
G-------6-------------------|
D---------------------------|
A---------------------------|
E---------------------------|

Verse/Or What Ever You May Call It


E-------------------------------|
B-7-5-7-8---7-5-7-8---7-5-7-8-5-|
G-------------------------------|
D-------------------------------|
A-------------------------------|
E-------------------------------|


E--777-555-------------|
B----------8-7-8-7-5-7-|
G----------------------|
D----------------------|
A----------------------|
E----------------------|


E-------------------------------|
B-7-5-7-8---7-5-7-8---7-5-7-8-5-|
G-------------------------------|
D-------------------------------|
A-------------------------------|
E-------------------------------|


E---------------------------|
B-4/5-5---7-4---4-5-7-6/7-5-|
G-------6-------------------|
D---------------------------|
A---------------------------|
E---------------------------|

Solo 1

E-------------7-10-10s12s10--7-7--|
B--888-8-8-10---------------------|
G---------------------------------|
D---------------------------------|
A---------------------------------|
E---------------------------------|

E-12-12-14-10-10-12-7-7-10----7-7-7-7-|
A--------------------------10---------|
D-------------------------------------|
G-------------------------------------|
B-------------------------------------|
E-------------------------------------|

E-7--------|
A---10-9-8-|
D----------|
G----------|
B----------|
E----------|

E-------------7-10-10s12s10--7-7---12-12-14-10-10-12-7-7-10----7-7-7-7--|
B--888-8-8-10-----------------------------------------------10----------|
G-----------------------------------------------------------------------|
D-----------------------------------------------------------------------|
A-----------------------------------------------------------------------|
E-----------------------------------------------------------------------|


Main Solo {played too fast}

E-15-14-15-14-12-14-12-14-15-14-12-15-14-12-14-12---|
B---------------------------------------------------|
G---------------------------------------------------|
D---------------------------------------------------|
A---------------------------------------------------|
E---------------------------------------------------|

E-14-12-14-12-10-12-10-12-14-12-10-14-12-10-12-10---|
B---------------------------------------------------|
G---------------------------------------------------|
D---------------------------------------------------|
A---------------------------------------------------|
E---------------------------------------------------|

E-12-10-12-10-8-10-8-10-12-10-8-12-10-8-10-8--------|
B---------------------------------------------------|
G---------------------------------------------------|
D---------------------------------------------------|
A---------------------------------------------------|
E---------------------------------------------------|

Ending


E--7-77-7-7-7s8s7----7-8-7------|
B-----------------10-------10-8-|
G-------------------------------|
D-------------------------------|
A-------------------------------|
E-------------------------------|

E-------------------------------|
B-7-5-7-8---7-5-7-8---7-5-7-8-5-|
G-------------------------------|
D-------------------------------|
A-------------------------------|
E-------------------------------|

Done !! :-D

Best Of Luck If You Have Queries Mail Me !!
Enjoy !!
            
Tabs too difficult? Try these video lessons and learn fast.


comments powered by Disqus
↑ Back to top | Tablatures and chords are parodies/interpretations of the original songs. You may use it for private study, scholarship, research or language learning purposes only