» » »

Kinks, Think Visual Tabs (ver.1)

Artists:  A B C D E F G H I J K L M N O P Q R S T U V W X Y Z # 

Think Visual Tabs (ver.1)

Kinks Tabs
Rating:
0/5 (0 votes)
Think Visual lessons Tabs too difficult? Try these video lessons and learn fast
                Think Visual by the Kinks
(standard tuning)

 h   hammer on      /   slide up   
 p   pull off       \   slide down       
 b   bend           *   natural harmonic 
 pb  pre bend       ra  rake             
 r   release bend   x   dead note     

Intro - Guitar 1
|----------------------------------|
|----------------------------------|
|----------------------------------|
|----------------------------------|
|-5--5--3-5--3---3--5--3--5-3---3--|
|--------------5--------------5----|
8 times

Intro - Guitar 2 (I'm not too sure about this part)
|--13-13--13-13-12--13--12--13--12----13-13--13-13-12--13--12--13-|
|--13-13--13-13-12--13--12--13--12----13-13--13-13-12--13--12--13-|
|-----------------------------------------------------------------|
|-----------------------------------------------------------------|
|-----------------------------------------------------------------|
|-----------------------------------------------------------------|

Verse
|--------------------------------------------------------------|
|----7--5--4-5-4--2--4-------------7--5--4-5-4--2--4-----------|
|--0-------------------3--2-3-2--0-------------------3--2-3-2--|
|--------------------------------------------------------------|
|--------------------------------------------------------------|
|--------------------------------------------------------------|


|----------------------------------|
|----------------------------------|
|----------------------------------|
|----------------------------------|
|-5--5--3-5--3---3--5--3--5-3---3--|
|--------------5--------------5----|
8 times

Chorus
|----------------|
|----------------|
|----------------|
|--7--5----------|
|--5--3----7--5--|
|----------5--3--|


|--13-13--13-13-12--13--12--13--12----13-13--13-13-12--13--12--13--|
|--13-13--13-13-12--13--12--13--12----13-13--13-13-12--13--12--13--|
|------------------------------------------------------------------|
|------------------------------------------------------------------|
|------------------------------------------------------------------|
|------------------------------------------------------------------|
2 times

|--5--5--x-x-5--5-5--5-5\-|---------------------------------|
|--6--6--x-x-6--6-6--6-6\-|---------------------------------|
|-------------------------|-2--2--0--2-0---0--2-0--2-0---0--|
|-------------------------|--------------2-------------2----|
|-------------------------|---------------------------------|
|-------------------------|---------------------------------|
                           4 times
Verse
|--------------------------------------------------------------|
|----7--5--4-5-4--2--4-------------7--5--4-5-4--2--4-----------|
|--0-------------------3--2-3-2--0-------------------3--2-3-2--|
|--------------------------------------------------------------|
|--------------------------------------------------------------|
|--------------------------------------------------------------|


Ending
|------------------------|
|------------------------|
|--7-7-7--5--------------|
|--7-7-7--5--7--5--------|
|------------7--5--8--5--|
|------------------8--5--|


|--13-13--13-13-12--13--12--13--12----13-13--13-13-12--13--12--13--|
|--13-13--13-13-12--13--12--13--12----13-13--13-13-12--13--12--13--|
|------------------------------------------------------------------|
|------------------------------------------------------------------|
|------------------------------------------------------------------|
|------------------------------------------------------------------|


|---------------------------|
|---------------------------|
|--7-7-7--5--------------7--|
|--7-7-7--5--7--5--------7--|
|------------7--5--8--5-----|
|------------------8--5-----|
            

comments powered by Disqus
↑ Back to top | Kinks Tabs for Think Visual. Lyrics for acoustic guitar and electric guitar. Tablatures and chords are parodies/interpretations of the original songs. You may use it for private study, scholarship, research or language learning purposes only