» » »

Father Christmas Bass tabs (ver.1)

Artists:  A B C D E F G H I J K L M N O P Q R S T U V W X Y Z # 

Father Christmas Bass tabs (ver.1)

Kinks
Rating:
0/5 (0 votes)

Hard to play? Try these video lessons and learn fast.
                Father Christmas by the Kinks (come dancing with the kinks}
this a correction of my last tab for this song
intro
G--------------------|
D----------3-3---5-5-|
A-3--3-3-------------|x4
E--------------------|

when i was 4 i beleived in santa clause...
G----------------------------------------|
D----------------------------------------|
A-3---3-2---2-0---0-------3---3-2--3-----|
E-------------------3---3------------3-3-|
and i would hang up my stockings on christmas...
G----------------------------------------|
D----------------------------------------|
A-3---3-------0---0-------3---3-2--3-----|
E-------0---0-------3---3------------3-3-|
but the last time i played father christmas...
G---------------------------------------------|
D---------------------------------------------|
A---------------------------------------------|
E-5---5-3-----1-1-1-0---/5---5-3-----1-1-1-0--|
a gang of kids came over and mugged me...
G------------------------------------------------------|
D------------------------------------------------------|
A-3---3-2---2-0---0-------3---3-2--3-------------------|
E-------------------3---3------------3-333333333333333-|

chorus
G----------------------------------|
D----------------------------------|
A-----3--3-----3-320----3----------|x2
E--3-3----3-3-3------3-3---1-1-1-3-|
give all the toys...
G-----------------------------|
D--------------3-3-1-3-1-3-/5-|
A-----------------------------|
E--3-3-1-3-1-3----------------|

guitar solo
G----------------------|don't do the slide at the 
D------------3-3---5-5-|beginning when you repeat
A-12/3--3-3------------|x4
E----------------------|

dont give my brother a steve austin outfit...
G----------------------------------------|
D----------------------------------------|
A-3---3-2---2-0---0-------3---3-2--3-----|
E-------------------3---3------------3-3-|
we dont want a jigsaw or monopoly money...
G----------------------------------------|
D----------------------------------------|
A-3---3-------0---0-------3---3-2--3-----|
E-------0---0-------3---3------------3-3-|

chorus x 2

but give my daddy a job cause he needs one
G---------------------------------------------|
D---------------------------------------------|
A---------------------------------------------|
E-5---5-3-----1-1-1-0---/5---5-3-----1-1-1-0--|
but you've got one all have a machine gun...
G---------------------------------------------------------|
D---------------------------------------------------------|
A-3---3-2---2-0---0-------3---3-2--3----------------------|
E-------------------3---3------------3-3-3333333333333333-|

chorus x 2
give all the toys...
G-----------------------------|
D--------------3-3-1-3-1-3-/5-|
A-----------------------------|
E--3-3-1-3-1-3----------------|

guitar solo (again)
G----------------------|don't do the slide at the 
D------------3-3---5-5-|beginning when you repeat
A-12/3--3-3------------|x4
E----------------------|

rest and then
G-------------------------------------|
D-------------------------------------|
A-------------------------------------|
E-12/33333333333333333333333333333333-|

rest and then modified chorus
G-------------------------------------|
D-------------------------------------|
A---023-320---023-320---023-3---------|x2
E--3--------3---------3-------1-1-1-3-|

give all the toys
G-----------------------------|
D--------------3-3-1-3-1-3-/5-|
A-----------------------------|
E--3-3-1-3-1-3----------------|
to all the little rich boys
G------------------------------------|
D------------------------------------|
A-very slow slide--------------------|
E-3\\\\\\\\\\\\\\\\\\\\\\\\\\\\\\\15-|

outro solo
G--------------------|
D----------3-3---5-5-|
A-3--3-3-------------|x8
E--------------------|
            
Hard to play? Try these video lessons and learn fast. | Correct




comments powered by Disqus
↑ Back to top | Tablatures and chords are parodies/interpretations of the original songs. You may use it for private study, scholarship, research or language learning purposes only