» » »

Kinks, Big Sky Bass tabs (ver.1)

Artists:  A B C D E F G H I J K L M N O P Q R S T U V W X Y Z # 

Big Sky Bass tabs (ver.1)

Kinks Tabs
 Rating:
4/5 (4 votes)
Big Sky lessons Tabs too difficult? Try these video lessons and learn fast
1
                			     Big Sky - The Kinks


Tuning: Regular

Intro:

G|-7---7-5---5------------------------------------4-5-7----------------------|
D|-------------5---5-3-2-3----3---3-3-------5-3-5----------------------------|
A|-------------------------------------3-------------------------------------|
E|---------------------------------------------------------------------------|

Big sky look down...         Everyone's pushing...

G|-7---7-5---5------------------------------------4-5-7----------------------|
D|-------------5---5-3-2-3----3---3-3-------5-3-5----------------------------|
A|-------------------------------------3-------------------------------------|
E|---------------------------------------------------------------------------|

             Big sky too big to cry...

G|-----------------4-5-7-----------------------------------------------------|
D|-3--3-3----5-3-5-----------------------------------------------------------|
A|--------3------------------------------------------------------------------|
E|---------------------------------------------------------------------------|

One        day,    we'll be free       we won't care            just you see

G|-3-3-3-3-------------------------------------------------------------------|
D|---------5-5-5-5-5---------------------------------------------------------|
A|-------------------6-6-6-6---------5-6-6-6-6--------5-6-6-6-6--------------|
E|---------------------------6-6-6-6-----------6-6-6-6----------6-6-6-6-6----|

'til        that        day can be       don't let it get you down

G|---------------------------------------------------------------------------|
D|-8-8-8-8-------------------------------0-1-1-1-1-1-1-1-1-1-1-1-1-1-1-1-1---|
A|--------10-10-10-10-------------1-1-1-1------------------------------------|
E|--------------------11-11-11-11--------------------------------------------|

let it get you down     And when I see that the world's too much for me

G|---------------------------------------------------------------------------|
D|-1-1-1-1-1-1-1-1-----------------------------------------------------------|
A|------------------------------------1---1-1---------1---1-1----------------|
E|---------------------------------------------------------------------------|


I think of the big sky and nothing matters much to me

G|---------------------------------------------------------------------------|
D|---1---1-1---1---1-1-------------------------------------------------------|
A|-------------------------1---1-1----1--1-1---------------------------------|
E|---------------------------------------------------------------------------|



| /  slide up
| \  slide down
| h  hammer-on
| p  pull-off
| ~  vibrato
| +  harmonic
| x  Mute note
            
Submit corrections

comments powered by Disqus
↑ Back to top | Kinks Bass for Big Sky. Lyrics for acoustic guitar and electric guitar. 1 Tablatures and chords are parodies/interpretations of the original songs. You may use it for private study, scholarship, research or language learning purposes only