» » »

Kinks, A Well Respected Man Bass tabs (ver.1)

Artists:  A B C D E F G H I J K L M N O P Q R S T U V W X Y Z # 

A Well Respected Man Bass tabs (ver.1)

Kinks Tabs
 Rating:
4/5 (5 votes)
A Well Respected Man lessons Tabs too difficult? Try these video lessons and learn fast
                

Tuning:EADG

After Guitar Intro
x3
G|--------------------|----------------------|
D|--------------------|----------------------|
A|---3-----2----0--0--|---3------2-----0--0--|
E|--------------------|----------------------|


   "He's a WELL respected MAN about town, DOING the best things...
G|---------------------------------------------------------------------|
D|---------------------------------------------------------------------|
A|---------------------------------------------------------------------|
E|-----------1-------------0----------------1--------------------------|

    SO conservatively"
G|---------------------------------------|
D|--0------------------------------------|
A|-------------------------3------0-2----|
E|------------------3--3-3---3--3--------|

x3
G|--------------------|----------------------|
D|--------------------|----------------------|
A|---3-----2----0--0--|---3------2-----0--0--|
E|--------------------|----------------------|


   "He's a WELL respected MAN about town, DOING the best things...
G|---------------------------------------------------------------------|
D|---------------------------------------------------------------------|
A|---------------------------------------------------------------------|
E|-----------1-------------0----------------1--------------------------|

    SO conservatively"
G|---------------------------------------|
D|--0------------------------------------|
A|-------------------------3------0-2----|
E|------------------3--3-3---3--3--------|

x3
G|---------------------|----------------------|
D|----------2----------|-----------2----------|
A|---3-----------0--0--|---3------------0--0--|
E|---------------------|----------------------|


   "He's a WELL respected MAN about town, DOING the best things...
G|---------------------------------------------------------------------|
D|---------------------------------------------------------------------|
A|---------------------------------------------------------------------|
E|-----------1-------------0----------------1--------------------------|

    SO conservatively"
G|---------------------------------------|
D|--0------------------------------------|
A|-------------------------3------0-2----|
E|------------------3--3-3---3--3--------|

x2
G|--------------------|----------------------|
D|--------------------|----------2-----------|
A|---3-----2----0--0--|---3------------0--0--|
E|--------------------|----------------------|

G|--------------------|----------------------|
D|--------------------|----------------------|
A|---3-----2----0--0--|---3-------2----0--0--|
E|--------------------|----------------------|

x2
G|--------------------|----------------------|
D|--------------------|-----------2----------|
A|---3-----2----0--0--|---3------------0--0--|
E|--------------------|----------------------|


   "He's a WELL respected MAN about town, DOING the best things...
G|---------------------------------------------------------------------|
D|---------------------------------------------------------------------|
A|---------------------------------------------------------------------|
E|-----------1-------------0----------------1--------------------------|

    SO conservatively"
G|---------------------------------------|
D|--0------------------------------------|
A|-------------------------3-------------|
E|------------------3--3-3---3-----------|


| /  slide up
| \  slide down
| h  hammer-on
| p  pull-off
| ~  vibrato
| +  harmonic
| x  Mute note
            
Submit corrections

comments powered by Disqus
↑ Back to top | Kinks Bass for A Well Respected Man. Lyrics for acoustic guitar and electric guitar. Tablatures and chords are parodies/interpretations of the original songs. You may use it for private study, scholarship, research or language learning purposes only