» » »

All Day And All Of The Night Tabs (ver.5)

Artists:  A B C D E F G H I J K L M N O P Q R S T U V W X Y Z # 

All Day And All Of The Night Tabs (ver.5)

Kinks
Rating:
3/5 (6 votes)

Hard to play? Try these video lessons and learn fast.
                ---------------------------------------------------------------------------
                All Day and all of the night - The kinks
---------------------------------------------------------------------------

Tuning: EADGBe

Intro

e|----------------------------------------------------------------------|
B|----------------------------------------------------------------------|
G|----------------------5-5-5-------------------------------------------|
D|------5/7-7-7/5---5---5-5-5--5-------------(play 2x)------------------|
A|------5/7-7-7/5---5---3-3-3--5----------------------------------------|
E|------3/5-5-5/3---3----------3----------------------------------------|

e|------x-x-x-x-x-x---------|
B|------x-x-x-x-x-x---------|
G|------x-x-x-x-x-x---------|
D|------x-x-x-x-x-x---------|
A|------x-x-x-x-x-x---------|
E|------x-x-x-x-x-x---------|

Verses

e|----------------------------------------------------------------------|
B|----------------------------------------------------------------------|
G|----------------------5-5-5-------------------------------------------|
D|--7----7-7-7/5---5---5-5-5--5-----------------------------------------|
A|--7----7-7-7/5---5---3-3-3--5-----------------------------------------|
E|--5----5-5-5/3---3----------3-----------------------------------------|

Bridge

e|---------------------------------------------------------------|
B|---------------------------------------------------------------|
G|-------5555----------------------------------------------------|
D|--5555-5555-7777--------(play as many times as needed)---------|
A|--5555-3333-7777-----------------------------------------------|
E|--3333------5555-----------------------------------------------|

e|----------------------------------------------------------------|
B|----------------------------------------------------------------|
G|------------5555------------------------------------------------|
D|--7777-5555-5555-7-------(play as many times as needed)---------|
A|--7777-5555-3333-7----------------------------------------------|
E|--5555-3333------5----------------------------------------------|

There's already a really good tab for the solo on the site so I won't bother trying to tab it. ENJOY!!!!

| /  slide up
| \  slide down
| h  hammer-on
| p  pull-off
| ~  vibrato
| +  harmonic
| x  Mute note
============================================================================
            
Hard to play? Try these video lessons and learn fast. | Correct




comments powered by Disqus
↑ Back to top | Tablatures and chords are parodies/interpretations of the original songs. You may use it for private study, scholarship, research or language learning purposes only