» » »

Kinks, All Day And All Of The Night Tabs (ver.4)

Artists:  A B C D E F G H I J K L M N O P Q R S T U V W X Y Z # 

All Day And All Of The Night Tabs (ver.4)

Kinks Tabs
 Rating:
3.2/5 (23 votes)
All Day And All Of The Night lessons Tabs too difficult? Try these video lessons and learn fast
1
                Band:The Kinks

ok here it goes, now this is the WHOLE SONG including solo

Intro/Verse:

e------------------------
B------------------------
G------------33x--------- X6
D--55---33---33x-5-------
A--55---33---11x-5-------
E--33---11-------3-------

Pre-Chorus:

e----------------------
B----------------------
G--3-------------------
D--3x8---3----7--------
A--1-----3x8--7x16-----
E--------1----5--------

Chorus:

e--------------------------
B----------55x-------------
G--77--55--55x-7-----------
D--77--55--33x-7-----------X4
A--55--33------5-----------
E--------------------------

Little Thing Before Solo:

|--------------------------|
|---------5---xxx----------|
|-7---5---5---xxx-5--------|
|-7---5---3---xxx-5--------|  
|-5---3-----------3--------|
|--------------------------|

Solo:

|--------------------------------------------------------------------|
|-----3-------------------------------------------3------------------|
|--5-----5--5b6--5b6--5b6--5b6--5b6--5b7--5p3-----3-------3-----3----|
|----------------------------------------------5-------5-----5-----5-|
|--------------------------------------------------------------------|
|--------------------------------------------------------------------|


|--------------------------------------------------------------------|
|----------------------------------------------3--3-----3------------|
|----------3-------3-------3-------3-----3-----3--3-----3-----3h5----|
|--5--3h5-----3h5-----3h5-----3h5-----5-----5--------5-----5-------5-|
|--------------------------------------------------------------------|
|--------------------------------------------------------------------|


|-------------------------------------------------------------|
|--3--3-----3-------------------------------------------------|
|--3--3-----3-----3h5--5b7--5b7--5b7--5b7--5b7--5b7---5p3-----|
|--------5-----5-------------------------------------------5--|
|-------------------------------------------------------------|
|-------------------------------------------------------------|


|-----------------------15--15---------------------------------------|
|--------------------------------------------------------------------|
|------15--17--17b19------------17p15------15----------15------15----|
|--17----------------------------------17----------17------17--------|
|--------------------------------------------------------------------|
|--------------------------------------------------------------------|


|---------------------------------------------------------------|
|------17-----17----------17-----17-----------------------------|
|--17--17b19--17b19---17--17b19--17b19-----15------15-------15--|
|----------------------------------------------17------17-------|
|---------------------------------------------------------------|
|---------------------------------------------------------------|


|-------------------------------------------------------------|
|-------------------------------------------------------------|
|---------15---------15---------15---------15--15----15-------|
|--15h17------15h17------15h17------15h17----------------17\--|
|-------------------------------------------------------------|
|-------------------------------------------------------------|

Outro:

|----------------|
|--------5-------|
|--7--5--5--7----|
|--7--5--3--7----|
|--5--3-----5----|
|----------------|
Song Order:
Intro/Verse
Pre-Chorus
Chorus
Verse
Pre-Chorus
Chorus
Thing Before Solo
Solo
Verse
Pre-Chorus
Chorus
Outro
            
Submit corrections

comments powered by Disqus
↑ Back to top | Kinks Tabs for All Day And All Of The Night. Lyrics for acoustic guitar and electric guitar. 1 Tablatures and chords are parodies/interpretations of the original songs. You may use it for private study, scholarship, research or language learning purposes only