» » »

Two Of A Kind Tabs (ver.1)

Artists:  A B C D E F G H I J K L M N O P Q R S T U V W X Y Z # 

Two Of A Kind Tabs (ver.1)

Kingston Wall
Rating:
0/5 (0 votes)

Tabs too difficult? Try these video lessons and learn fast.
                Kingston wall Two of a Kind

Intro:

D#2-23202-x-0--------|       x?
A#0-00000-3-0--------|
F#4-----4-4-4--------|
C#4------------------|
G#-------------------|
D#-------------------|

Bass line:

F#------------|
C#---4--------|
G#2-2--2------|
D#------5-0-1-|

Chorus chords:

D#------------------------|
A#------3--2--0-----------|     x3
F#4-----x--x--0-----------|
C#4-----2--2--4-----------|
G#2-----0--0--2-----------|
D#------------3-----------|

at the end of first chorus is:

D#9-99-99-9-9-7--|
A#8-88-88-8-8-8--|
F#7-77-77-7-7-7--|
C#---------------|
G#---------------|
D#---------------|

then some soloing in b minor and b gypsy scale.

Starting with:
timing absolutely not correct.

D#9--7h9p7--------------------------------------------------------------------|
A#0-------10-7--6-78-67-6------67777-676--7-6---------------------------------|
F#-----------------------7-67------------7---6767677--------7979767-676---6---|
C#---------------------------------------------------79--7-9-----------9-7--7-|
G#------------------------------------------------------9---------------------|
D#----------------------------------------------------------------------------|

D#-------9997---1099h10p9-----------------------|
A#-----------7-----------7--6-7--77-67-6-----6--|
F#-----------------------------7--------7-67--7-|
C#--79------------------------------------------|
G#9---------------------------------------------|
D#----------------------------------------------|

and so it goes on...
            
Tabs too difficult? Try these video lessons and learn fast.




comments powered by Disqus
↑ Back to top | Tablatures and chords are parodies/interpretations of the original songs. You may use it for private study, scholarship, research or language learning purposes only