» » »

Kingston Wall, For All Mankind Tabs (ver.1)

Artists:  A B C D E F G H I J K L M N O P Q R S T U V W X Y Z # 

For All Mankind Tabs (ver.1)

Kingston Wall Tabs
Rating:
0/5 (0 votes)
For All Mankind lessons Tabs too difficult? Try these video lessons and learn fast
                -----------------------------------------------------------------------------


|------------7---9---7-----|------9---7---------------|
|------5---------------9-5-|--------------9-----5-----|
|--6-----------------------|--6---------------------6-|
|--------------------------|--------------------------|
|--------------------------|--------------------------|
|--------------------------|--------------------------|


|-------------11-9-----------|-----11---9---------------------|
|--------7--------------11-7-|---------------11---7----11-----|
|--8-------------------------|------------------------------8-|
|----------------------------|--------------------------------|
|----------------------------|--------------------------------|
|----------------------------|--------------------------------|


|----------------|------------------|
|----------------|--5-7-5-4-5-4-----|
|------4------4--|--------------4---|
|----2--------4--|------------------|
|--4------2-4----|------------------|
|----------------|------------------|

|--------------|----4-------------|
|--------------|--7---7-5-7-5-----|
|------------6-|----------------6-|
|----4-------6-|------------------|
|--6-----4-6---|------------------|
|--------------|------------------|


C#m
We all know this world's going through
some big changes...

D#m
people start looking for ways to live
outside...

C#m                             E  C#m
Look out world it's time to die

D#m                         F#  D#m
No more crying with my mind
            
Submit corrections

comments powered by Disqus
↑ Back to top | Kingston Wall Tabs for For All Mankind. Lyrics for acoustic guitar and electric guitar. Tablatures and chords are parodies/interpretations of the original songs. You may use it for private study, scholarship, research or language learning purposes only