» » »

Kingston Wall, And I Hear Your Call Tabs (ver.1)

Artists:  A B C D E F G H I J K L M N O P Q R S T U V W X Y Z # 

And I Hear Your Call Tabs (ver.1)

Kingston Wall Tabs
Rating:
5/5 (1 vote)
And I Hear Your Call lessons Tabs too difficult? Try these video lessons and learn fast
                And I hear you call
tablature by: Walli

pääriffi
------------------------------------------------------------------------------------- e
-------2--5--2^5^2-----6--3^6^3-----5--2^5^2----------------------------------------- h
2--2^3-------------2------------3------------3--------------------------------------- g
2------------------------------------------------------------------------------------ d
0------------------------------------------------------------------------------------ a
------------------------------------------------------------------------------------- e

välijuttu 1
5-5-4-------------------------------------------------------------------------------- e
-------6-5-----6-5------------------------------------------------------------------- h
------------7-------7--6^7^6--------------------------------------------------------- g
------------------------------8-------7-7-6------------------------------------------ d
---------------------------------------------8-7-5---8-7-5---4^5^4------------------- a
--------------------------------------------------------------------6---------------- e

ennen laulamisen alkua
9-10-9------------------------------------------------------------------------------- e
--------11-10-8---10---------10------------------------------------------------------ h
6--7-6------------------7-9---------------------------------------------------------- g
---------8--7-5----7----------7------------------------------------------------------ d
------------------------5-7---------------------------------------------------------- a
------------------------------------------------------------------------------------- e

laulumelodia
------9-10-9-10--13-12-10---9^10^9--------------------------------------------------- e
10-11------------------------------11------------------------------------------------ h
------6--7-6--7--10--9--7---6--7-6--------------------------------------------------- g
-7--8-------------------------------8------------------------------------------------ d
------------------------------------------------------------------------------------- a
------------------------------------------------------------------------------------- e

kertosäe (toista ties kuinka monta kertaa)
------------------------------------------------------------------------------------- e
8-888-7------------------------------------------------------------------------------ h
9-999-7------------------------------------------------------------------------------ g
7-777-7------------------------------------------------------------------------------ d
0-000-0------------------------------------------------------------------------------ a
------------------------------------------------------------------------------------- e
nouseva juttu (2.06) 
------------------------------------------------------------------------------------- e
5--7-----9--------------------------------------------------------------------------- h
------7------------------------------------------------------------------------------ g
2--4-----6--------------------------------------------------------------------------- d
------5------------------------------------------------------------------------------ a
------------------------------------------------------------------------------------- e

välijuttu 2
5-5-4-------------------------------------------------------------------------------- e
-------6-5-----6-5------------------------------------------------------------------- h
------------7-------7--6^7^6------------6-9------------------------------------------ g
------------------------------8----7-8-------7-8--5-7----7--------------------------- d
-------------------------------------------------------7----------------------------- a
------------------------------------------------------------------------------------- e
            
Submit corrections

comments powered by Disqus
↑ Back to top | Kingston Wall Tabs for And I Hear Your Call. Lyrics for acoustic guitar and electric guitar. Tablatures and chords are parodies/interpretations of the original songs. You may use it for private study, scholarship, research or language learning purposes only