» » »

Second To Numb Tabs (ver.1)

Artists:  A B C D E F G H I J K L M N O P Q R S T U V W X Y Z # 

Second To Numb Tabs (ver.1)

Kings Of Convenience
Rating:
0/5 (0 votes)

Hard to play? Try these video lessons and learn fast.
                
Guitar #1 - Erlend
Standard Tuning / Open

Main riff:

|--------------------------------|--------------------------------|
|--------------0-----------------|--------------0-----------------|
|----2---------------2-----------|----0---------------0-----------|
|----------0-----------------0---|----------2---------------------|
|--------------------------------|0-------0-------0-------0---2---|
|3-------3-------3-------3-------|--------------------------------|

|--------------------------------|--------------------------------|
|--------------3-----------------|--------------0-----------------|
|----0---------------0-----------|----2---------------2-----------|
|----------2-----------------0---|----------0-----------------0---|
|3-------3-------3-------3-------|--------------------------------|
|--------------------------------|3-------3-------3-------3-------|


Instrumental Riff:

|----7---------7-----------------|--------------------------------|
|------------7-------------------|----10--------10----------------|
|----------0---------0-------0---|------------9-------------------|
|--------------------------------|--------------------------------|
|10------10------10------10------|10------10------10------10------|
|--------------------------------|--------------------------------|

|--------------------------------|--------------------------------|
|------------8-------------------|----8---------8-----------------|
|----11--------11----------------|------------11------------------|
|--------------------------------|--------------------------------|
|10------10------10------10------|10------10------10------10------|
|--------------------------------|--------------------------------|

|----7---------7-----------------|--------------------------------|
|------------7-------------------|----10--------10----------------|
|--------------------------------|------------9-------------------|
|0-------0-------0-------0-------|--------------------------------|
|--------------------------------|--------------------------------|
|--------------------------------|8-------8-------8-------8-------|

|--------------------------------|--------------------------------|
|------------8-------------------|----8---------8-----------------|
|----11--------11----------------|------------11------------------|
|--------------------------------|------------------------0-------|
|0-------0-------0-------0-------|10------10------10--------------|
|--------------------------------|--------------------------------|


Bridge Riff: ("What will we become...")

4 Measures of Eirik alone before entrance.

|--------------------------------|--------------------------------|
|----10--------10----------------|----8---------8-----------------|
|7-----------7-------7-------7---|------------9-------------------|
|----------9---------------------|----------10--------10-----10---|
|--------10------10------10------|10------10------10------10------|
|--------------------------------|--------------------------------|

|----7---------7-----------------|--------------------------------|
|--------------------------------|----7---------7-----------------|
|------------9-------------------|------------7-------7-------7---|
|----------10--------10------10--|----------10--------------------|
|10------10------10------10------|10------10------10------10------|
|--------------------------------|--------------------------------|


Guitar #2 - Eirik
Standard Tuning / Capo 7

Main riff:

|--------------------------------|--------------------------------|
|------------0---------------0---|------------0---------------0---|
|----0-----0---------0-----0-----|----2-----2---------2-----2-----|
|2-------2-------2-------2-------|3-------3-----3---------3-------|
|--------------------------------|--------------------------------|
|--------------------------------|--------------------------------|

|--------------------------------|--------------------------------|
|------------1---------------1---|------------0---------------0---|
|----2-----2---------2-----2-----|----0-----0---------0-----0-----|
|3-------3-------3-------3-------|2-------2-------2-------2-------|
|--------------------------------|--------------------------------|
|--------------------------------|--------------------------------|


Alternate riff:
[Played at "What is given...", "How far away from..."]

|--------------0-----------------|--------------1-----------------|
|------------0---------------0---|------------0---------------0---|
|----0-----0---------0-----0-----|----2-----2---------2-----2-----|
|2-------2-------2-------2-------|3-------3-------3-------3-------|
|--------------------------------|--------------------------------|
|--------------------------------|--------------------------------|

|--------------3-----------------|--------------------------------|
|------------1---------------0---|------------0h1-------------0---|
|----2-----2---------2-----2-----|----0-----0---------0-----0-----|
|3-------3-------3-------3-------|2-------2-------2-------2-------|
|--------------------------------|--------------------------------|
|--------------------------------|--------------------------------|

|--------------0-----------------|--------------1-----------------|
|------------0---------------0---|------------0---------------0---|
|----0-----0---------0-----0-----|----2-----2---------2-----2-----|
|2-------2-------2-------2-------|3-------3-------3-------3-------|
|--------------------------------|--------------------------------|
|--------------------------------|--------------------------------|

|--------------------------------|--------------------------------|
|------------0---------------0---|------------0---------------0---|
|----2-----2---------2-----2-----|----0-----0---------0-----0-----|
|3-------3-------3-------3-------|2-------2-------2-------2-------|
|--------------------------------|--------------------------------|
|--------------------------------|--------------------------------|


Final riff:
[Played after "What will we become" bridge"]

|--------------------------------|--------------------------------|
|----------0---------------0-----|----------0---------------0-----|
|--------------0---------------0-|--------------0---------------0-|
|----0---------------0-----------|----3---------------3-----------|
|3-------3-------3-------3-------|5-------5-------5-------5-------|
|--------------------------------|--------------------------------|

|--------------------------------|--------------------------------|
|----------0---------------0-----|----------0---------------0-----|
|--------------1---------------1-|--------------0---------------0-|
|----3---------------3-----------|--------------------------------|
|5-------5-------5-------5-------|3-------3-------3-------3-------|
|--------------------------------|--------------------------------|

Notes:

During the verses, Erlend will play modified versions of the main riff, ranging from...

1. Playing the two lowest notes of each measure on alternating beats
(3xxxxx, xx0xxx  [x2]; x0xxxx, xx2xxx  [x2]; etc.)

2. Alternating the bass note pulse on each beat with block chord versions of everything
on the off beat
(3xxxxx, xx020xx  [x4]; x0xxxx, xx200xx  [x4]; etc.)

3. A combination of both.

It's mostly just improvised patterns with the same notes to make it easier to sing the
You could just play the main riff throughout the verses and it still sounds fine, just
noting. He will always go back to the original main riff when going into the 
riff, though.

For the instrumental riff (and the reason why this song is so hard to tab), it sounds
he's playing 3 notes outside of the quarter-note pulse because it's in the same register
Eirik's part, but he's actually only playing two 16th notes (beyond the first measure). 
a testament as to how solid their timing and intonation is that it creates crazy
like that.

If you have any ideas or suggestions, throw me an email.
            
Hard to play? Try these video lessons and learn fast. | Correct




comments powered by Disqus
↑ Back to top | Tablatures and chords are parodies/interpretations of the original songs. You may use it for private study, scholarship, research or language learning purposes only