» » »

Kings Of Convenience, Little Kids Tabs (ver.2)

Artists:  A B C D E F G H I J K L M N O P Q R S T U V W X Y Z # 

Little Kids Tabs (ver.2)

Kings Of Convenience Tabs
Rating:
5/5 (1 vote)
Little Kids lessons Tabs too difficult? Try these video lessons and learn fast
                Little Kids - Kings Of Convenience

Capo 2

Intro;

Chitarra 1
|----------------|
|-2-2-2-0-3-3-3-0|
|-2-2-2-0-2-2-2-0|
|4-4---0---------|
|----0---2-2-----|
|------------3-3-|


1 Parte;

Chitarra 1
|----------------|                                                               |----------------|
|-2-2-2-0-3-3-3-0|                                                               |-2-2-2-2--------|
|-2-2-2-0-2-2-2-0|                                                               |-2-2-2-2--------|
|4-4---0---------|                                                               |4-4-4-4-4-4-4-4-|
|----0---2-2-----|                                                               |----------------|
|------------3-3-|                                                               |----------------|

Chitarra 2
|------------------------------|        |----------------------------------------|
|------------------------------|        |----------------------------------------|
|------------------------------| x3     |----------------------------------------|
|-------4-2---2----------0--4--|        |-------4-2---2---------0----------------|
|-----------4---4-0-1-2--------|        |-----------4---4-0-1-2---4-2-4-2--------|
|-0-1-2------------------------|        |-0-1-2---------------------------0-1-2--|


2 Parte;

Uguale alla 1


3 Parte;

Chitarra 1
|----------------|
|-2-2-2-2-3-3-3-3|
|-2-2-2-2-2-2-2-2| x4
|----------------|
|----------------|
|----------------|

|-4-4-4-4-2-2-2-2|
|-5-5-5-5-3-3-3-3|
|----------------| x4
|----------------|
|----------------|
|----------------|


4 Parte;

Chitarra 1
|-4-4-4-4-2-2-2-2|
|-5-5-5-5-3-3-3-3|
|----------------| x5
|----------------|
|----------------|
|----------------|

Chitarra 2
|------------------------------|
|------------------------------|
|------------------------------|
|-------4-2---2----------0--4--|
|-----------4---4-0-1-2--------|
|-0-1-2------------------------|

Chitarra 1
|----------------|
|-2-2-2-2-3-3-3-3|
|-2-2-2-2-2-2-2-2| x1
|----------------|
|----------------|
|----------------|

Chitarra 2
|------------------------------|
|------------------------------|
|------------------------------|
|-------4-2---2----------0--4--|
|-----------4---4-0-1-2--------|
|-0-1-2------------------------|


Finale;

Chitarra 1
|----------------|
|-2-2-2-2-3-3-3-3|
|-2-2-2-2-2-2-2-2| x4
|----------------|
|----------------|
|----------------|

Chitarra 2
|------------------------------|
|------------------------------|
|------------------------------| x4
|-------4-2---2----------0--4--|
|-----------4---4-0-1-2--------|
|-0-1-2------------------------|

|-------|
|-------|
|-------|
|-------|
|-------|
|-0-1-2-|


       Cappello
            
Submit corrections

comments powered by Disqus
↑ Back to top | Kings Of Convenience Tabs for Little Kids. Lyrics for acoustic guitar and electric guitar. Tablatures and chords are parodies/interpretations of the original songs. You may use it for private study, scholarship, research or language learning purposes only