» » »

Roxas Bass tabs (ver.1)

Artists:  A B C D E F G H I J K L M N O P Q R S T U V W X Y Z # 

Roxas Bass tabs (ver.1)

Kingdom Hearts
Rating:
0/5 (0 votes)

Hard to play? Try these video lessons and learn fast.
                Key: C BPM: 60 (or doubled to 120)


 B|--------------------------------|
F#|8---------------8---------------|
  |--------------------------------|
  |--------------------------------|

 B|18---13-18-17--------15-13-11-13-----|
F#|-----------------------------------11|
  |-------------------------------------|
  |-------------------------------------|

B|---11-13-15-13---18---11-10-11-13---15---17---|
F#|---------------------------------------------|
  |---------------------------------------------|
  |---------------------------------------------|

 B|18---13-18-17--------15-13-11-13-----|
F#|-----------------------------------11|
  |-------------------------------------|
  |-------------------------------------|

B|---11-13-15-13---18---11-10-11-13---15---17---|
F#|---------------------------------------------|
  |---------------------------------------------|
  |---------------------------------------------|


 B|18-20-22-18-20---18-17-15---10------------|
F#|---------------------------------11---8---|
  |------------------------------------------|
  |------------------------------------------|

 B|-------------------------------------------------------------------------|
F#|8---------------8---------------8---------------8---------------8--------|
  |-------------------------------------------------------------------------|
  |-------------------------------------------------------------------------|
            
Hard to play? Try these video lessons and learn fast. | Correct




comments powered by Disqus
↑ Back to top | Tablatures and chords are parodies/interpretations of the original songs. You may use it for private study, scholarship, research or language learning purposes only