» » »

Kingdom Hearts, Rising Sun Tabs (ver.1)

Artists:  A B C D E F G H I J K L M N O P Q R S T U V W X Y Z # 

Rising Sun Tabs (ver.1)

Kingdom Hearts Tabs
 Rating:
4.8/5 (16 votes)
Rising Sun lessons Tabs too difficult? Try these video lessons and learn fast
                -------------------------------------------------------------------------------
        Rising Sun Simple and Clean Rock Remix - Hikaru and CarboHydroM
-------------------------------------------------------------------------------

Tuning: Standard

| /  slide up
| \  slide down
| h  hammer-on
| p  pull-off
| ~  vibrato
| +  harmonic
| x  Mute note

Chorus:
e|----10-8----------|----------------------11-10----------13-11-10-8-10-11-10-----------8-10-11----|
B|--8------11-10-11~|-------------11-10-11-------11-10-11---------------------8-11-8-11---------13~|
G|------------------|-10-10-10-10------------------------------------------------------------------|
D|------------------|------------------------------------------------------------------------------|
A|------------------|------------------------------------------------------------------------------|
E|----------------x3|------------------------------------------------------------------------------|

Verse1:                                                 /12x\
e|-----------------------------------------------------------|
B|----10-11-11\8----10-11-11-11/13\8----10-10-11-13-11-10h11p|
G|-10------------10------------------10----------------------|
D|-----------------------------------------------------------|
A|-----------------------------------------------------------|
E|-----------------------------------------------------------|

Verse1 Cont'd:
e|--------------------|
B|----10-10-11-11-10~-|
G|-10-----------------|
D|--------------------|
A|--------------------|
E|--------------------|

Bridge:
e|-------------------------------------------------------------------------------------------------|
B|-------------------------------------------------------------------------------------------------|
G|-------------------7-8----------------------7-8-------------10-12--------------------------7-8-10|
D|-10-8-10-8-10-8-10-----10--9-7-9-7-9-7-9-10-----10-1010-1010-------10-8-10-10-8-10-10-8-10-------|
A|-------------------------------------------------------------------------------------------------|
E|-------------------------------------------------------------------------------------------------|

Bridge cont'd:
e|---------------------------------------------------|
B|---------------------------------------------------| 
G|-12-10------12^-12------------8------8------12-11^-|
D|-------10-9--------99-10-8-10---8-10---10-9--------|
A|---------------------------------------------------|
E|---------------------------------------------------|

Verse2:
e|------13------1313-15-13-11-10-11-13------------11-10-11-13-10-10h11p10-8------------------------|
B|-8-11---11-11------------------------11-11-8-11---------------------------11-10-11----10-11------|
G|-----------------------------------------------------------------------------------10-------10-8-|
D|-------------------------------------------------------------------------------------------------|
A|-------------------------------------------------------------------------------------------------|
E|-------------------------------------------------------------------------------------------------|

Verse2 cont'd:
e|----------------------------10-8-11-10|
B|---------------8----8-11--------------|
G|-7-8-7-8-10-10---10------10-----------|
D|--------------------------------------|
A|--------------------------------------|
E|--------------------------------------|

Outro:                  
e|-----------------8----11-11-11-14-11-11-11-14-11-11-11-14-16-14-11-13--------------|
B|-11------8-10-11---11--------------------------------------------------------------|
G|----8-10---------------------------------------------------------------------------|
D|-----------------------------------------------------------------------5-5---------|
A|-----------------------------------------------------------------------6-6---------|
E|-----------------------------------------------------------------------4-4---------|

To Play:
Chorus
Verse1
Bridge
Chorus
Verse2
Chorus
Outro
===============================================================================
            
Submit corrections

comments powered by Disqus
↑ Back to top | Kingdom Hearts Tabs for Rising Sun. Lyrics for acoustic guitar and electric guitar. Tablatures and chords are parodies/interpretations of the original songs. You may use it for private study, scholarship, research or language learning purposes only