» » »

Kingdom Hearts, Hollow Bastion Tabs (ver.1)

Artists:  A B C D E F G H I J K L M N O P Q R S T U V W X Y Z # 

Hollow Bastion Tabs (ver.1)

Kingdom Hearts Tabs
 Rating:
4.3/5 (6 votes)
Hollow Bastion lessons Tabs too difficult? Try these video lessons and learn fast
                S S S S S S S S S S    S S S S S S S S S S    S S S S S S S S S S  
E||--2-3-2-7-----------9-|--------7-----------9-|--------7-----------9-|
B||----------7-8-7-8-7---|--7-8-7---7-8-7-8-7---|--7-8-7---7-8-7-8-7---|
G||----------------------|----------------------|----------------------|
D||----------------------|----------------------|----------------------|
A||----------------------|----------------------|----------------------|
E||----------------------|----------------------|----------------------|


  S S S S S S S S S S    S S S S S S S S S S    S S S S S S S S S S  
--------7-----------9-|--------7-----------9-|--------7-----------9-|
--7-8-7---7-8-7-8-7---|--7-8-7---7-8-7-8-7---|--7-8-7---7-8-7-8-7---|
----------------------|----------------------|----------------------|
----------------------|----------------------|----------------------|
----------------------|----------------------|----------------------|
----------------------|----------------------|----------------------|


   S S S  S  S S  S S  S  S     S S  S  S  S  S  S S  S S  
--10-9-7-12-10-9-10-9-10-12-|--10-9-10-14-12-10-12-9-10-7-|
----------------------------|-----------------------------|
----------------------------|-----------------------------|
----------------------------|-----------------------------|
----------------------------|-----------------------------|
----------------------------|-----------------------------|


  S S S S S S S S S S    S S S S S S S S S S     S S S  S  S S  S S  S  S  
--------7-----------9-|--------7-----------9-|--10-9-7-12-10-9-10-9-10-12-|
--7-8-7---7-8-7-8-7---|--7-8-7---7-8-7-8-7---|----------------------------|
----------------------|----------------------|----------------------------|
----------------------|----------------------|----------------------------|
----------------------|----------------------|----------------------------|
----------------------|----------------------|----------------------------|


   S S  S  S  S  S  S S  S S    S S S S S S S S S S    S S S S S S S S S S  
--10-9-10-14-12-10-12-9-10-7-|--------7-----------9-|--------7-----------9-|
-----------------------------|--7-8-7---7-8-7-8-7---|--7-8-7---7-8-7-8-7---|
-----------------------------|----------------------|----------------------|
-----------------------------|----------------------|----------------------|
-----------------------------|----------------------|----------------------|
-----------------------------|----------------------|----------------------|


   S S S  S  S S  S S  S  S     S S  S  S  S  S  S S  S S    H        E   
--10-9-7-12-10-9-10-9-10-12-|--10-9-10-14-12-10-12-9-10-7-|--------------|
----------------------------|-----------------------------|--------------|
----------------------------|-----------------------------|--------------|
----------------------------|-----------------------------|--------------|
----------------------------|-----------------------------|--------------|
----------------------------|-----------------------------|--------------|


  H        E     H        E     H        E     S S S S S S S S S S  
--------------|--------------|--------------|--2-3-2-7-----------9-|
--------------|--------------|--------------|----------7-8-7-8-7---|
--------------|--------------|--------------|----------------------|
--------------|--------------|--------------|----------------------|
--------------|--------------|--------------|----------------------|
--------------|--------------|--------------|----------------------|


  S S S S S S S S S S     S S S  S  S S  S S  S  S  
--------7-----------9-|--10-9-7-12-10-9-10-9-10-12-|
--7-8-7---7-8-7-8-7---|----------------------------|
----------------------|----------------------------|
----------------------|----------------------------|
----------------------|----------------------------|
----------------------|----------------------------|


   S S  S  S  S  S  S S  S S    S S S S S S S S S S    S S S S S S S S S S  
--10-9-10-14-12-10-12-9-10-7-|--------7-----------9-|--------7-----------9-|
-----------------------------|--7-8-7---7-8-7-8-7---|--7-8-7---7-8-7-8-7---|
-----------------------------|----------------------|----------------------|
-----------------------------|----------------------|----------------------|
-----------------------------|----------------------|----------------------|
-----------------------------|----------------------|----------------------|


   S S S  S  S S  S S  S  S     S S  S  S  S  S  S S  S S  
--10-9-7-12-10-9-10-9-10-12-|--10-9-10-14-12-10-12-9-10-7-|
----------------------------|-----------------------------|
----------------------------|-----------------------------|
----------------------------|-----------------------------|
----------------------------|-----------------------------|
----------------------------|-----------------------------|

 S S S S S S S S S S    S S S S S S S S S S    S S S S S S S S S S  
--------7-----------9-|--------7-----------9-|--------7-----------9-|
--7-8-7---7-8-7-8-7---|--7-8-7---7-8-7-8-7---|--7-8-7---7-8-7-8-7---|
----------------------|----------------------|----------------------|
----------------------|----------------------|----------------------|
----------------------|----------------------|----------------------|
----------------------|----------------------|----------------------|



   S  S S  S  S  S  S  S  S  S     S  S  S  S  S  S  S  S  S  S  
--12-10-8-15-14-12-14-12-14----|--------------------------------|
----------------------------15-|-----------------------------14-|
-------------------------------|-----------16-------------------|
-------------------------------|--16-17-16----16-17-16-17-16----|
-------------------------------|--------------------------------|
-------------------------------|--------------------------------|


   S  S  S  S  S  S  S  S  S  S     S  S S  S  S  S  S  S  S  S  
--------------------------------|--12-10-8-14-12-10-12-10-12-14-|
-----------------------------14-|-------------------------------|
-----------16-------------------|-------------------------------|
--16-17-16----16-17-16-17-16----|-------------------------------|
--------------------------------|-------------------------------|
--------------------------------|-------------------------------|


   S  S S  S  S  S  S  S  S  S   
--12-10-8-15-14-12-14-12-14----||
----------------------------15-||
-------------------------------||
-------------------------------||
-------------------------------||
-------------------------------||
            
Submit corrections

comments powered by Disqus
↑ Back to top | Kingdom Hearts Tabs for Hollow Bastion. Lyrics for acoustic guitar and electric guitar. Tablatures and chords are parodies/interpretations of the original songs. You may use it for private study, scholarship, research or language learning purposes only