» » »

Hikari Tabs (ver.3)

Artists:  A B C D E F G H I J K L M N O P Q R S T U V W X Y Z # 

Hikari Tabs (ver.3)

Kingdom Hearts
Rating:
5/5 (2 votes)

Hard to play? Try these video lessons and learn fast.
                e|---------------|---------------------------------------------------------|
B|--3-1----------|---------------4-3---------6-4-3-1-1-3-4-3-----3-4-1-----|
G|0-----3-2-3----|---------3-2-3-----3-2-3-5-5---------------0-3-------3-2-|
D|---------------|-3-3-3-3-------------------------------------------------|
A|---------------|---------------------------------------------------------|
E|------------x3-|---------------------------------------------------------|

e|1--------1-1-3-1-------1---------------1----------------------------------|
B|-----------------4-3-4-----------4-3-4---3-1------------------------------|
G|--3-3--3-----------------3-3-0-3--------------3-2-3---2-3-----------------|
D|----------------------------------------------------3-----3-1-0-1-0-1-3-3-|
A|--------------------------------------------------------------------------|
E|--------------------------------------------------------------------------|

e|--------------------------------------------------------------------------|
B|-----------3-1-4-3--------------------------------------------------------|
G|-------3------------------------------------------------------------------|
D|-5-3-5---3----------------------------------------------------------------|
A|--------------------------------------------------------------------------|
E|--------------------------------------------------------------------------|
            
Hard to play? Try these video lessons and learn fast. | Correct




comments powered by Disqus
↑ Back to top | Tablatures and chords are parodies/interpretations of the original songs. You may use it for private study, scholarship, research or language learning purposes only