» » »

Kingdom Hearts, Hikari Tabs (ver.1)

Artists:  A B C D E F G H I J K L M N O P Q R S T U V W X Y Z # 

Hikari Tabs (ver.1)

Kingdom Hearts Tabs
Rating:
5/5 (1 vote)
Hikari lessons Tabs too difficult? Try these video lessons and learn fast
                |------------------|--------------------------------------------------------|
|---15-13----------|----------------------16-15-------------18-16-15-13-13--|
|12-------15-14-15-|-------------15-14-15-------15-14-15-17-17--------------|
|------------------|-15-15-15-15--------------------------------------------|
|------------------|--------------------------------------------------------|
|----------------x3|--------------------------------------------------------|

|-------------------------------|
|15-16-15-------15-16-13--------|
|---------12-15----------15-14--|
|-------------------------------|
|-------------------------------|
|-------------------------------|

|---------------------------------------------------------------------------|
|---------------------------------------------------------------------------|
|----14-15-15-----14-15-15-17-12-----14-15-17-15-14^15^14^15^14^15^14-------|
|-15-----------15-----------------15----------------------------------15----|
|---------------------------------------------------------------------------|
|---------------------------------------------------------------------------|

|--------------------|
|--------------------|
|----14-15-15-17-12--|
|-15-----------------|
|--------------------|
|--------------------|

|---------------------------------------------------------------------------|
|---------------------------------------------------------------------------|
|----------------------8-------------------------8----------8---------------|
|-10-9-10-9-10-9-10-12---10--9-8-9-8-9-8-9-10-12---10--8-10----10-8-10-10-8-|
|---------------------------------------------------------------------------|
|---------------------------------------------------------------------------|

|---------------------------------------------------------------------------|
|---------------------------------------------------------------------------|
|--------------8-10^12-10----12------13-12-----------8------8-----12--------|
|10-10-8-10-12------------10----10-9-------9-10-8-10---8-10---8-9-----------|
|---------------------------------------------------------------------------|
|---------------------------------------------------------------------------|

|------------------|--------------------------------------------------------|
|---15-13----------|----------------------16-15-------------18-16-15-13-13--|
|12-------15-14-15-|-------------15-14-15-------15-14-15-17-17--------------|
|------------------|-15-15-15-15--------------------------------------------|
|------------------|--------------------------------------------------------|
|----------------x3|--------------------------------------------------------|

|------------------------------13-----------13-13-15-13----------13---------|
|15-16-15-------15-16-13--------------------------------16-15-16------------|
|---------12-15----------15-14----15-15--15-------------------------15-15---|
|---------------------------------------------------------------------------|
|---------------------------------------------------------------------------|
|---------------------------------------------------------------------------|

|---------------13-----------------------------------------------------------|
|------16-15-16----15-13-----------------------------------------------------|
|12-15--------------------15-14-15----14-15----------------------------------|
|----------------------------------15-------15-13-12-13-12-13-15-15-17-15-17-|
|----------------------------------------------------------------------------|
|----------------------------------------------------------------------------|

|------15-13-16-15----------------------------------------------------------|
|15-------------------------------------------------------------------------|
|---15----------------------------------------------------------------------|
|---------------------------------------------------------------------------|
|---------------------------------------------------------------------------|
|---------------------------------------------------------------------------|

|------------------|--------------------------------------------------------|
|---15-13----------|----------------------16-15-------------18-16-15-13-13--|
|12-------15-14-15-|-------------15-14-15-------15-14-15-17-17--------------|
|------------------|-15-15-15-15--------------------------------------------|
|------------------|--------------------------------------------------------|
|----------------x3|--------------------------------------------------------|

|-------------------------------|
|15-16-15-------15-16-13--------|
|---------12-15----------15-14--|
|-------------------------------|
|-------------------------------|
|-------------------------------|
            
Submit corrections

comments powered by Disqus
↑ Back to top | Kingdom Hearts Tabs for Hikari. Lyrics for acoustic guitar and electric guitar. Tablatures and chords are parodies/interpretations of the original songs. You may use it for private study, scholarship, research or language learning purposes only