» » »

Kingdom Hearts, Destiny Islands Tabs (ver.1)

Artists:  A B C D E F G H I J K L M N O P Q R S T U V W X Y Z # 

Destiny Islands Tabs (ver.1)

Kingdom Hearts Tabs
 Rating:
4/5 (4 votes)
Destiny Islands lessons Tabs too difficult? Try these video lessons and learn fast
                (Theme)
Chords:

Pre-Melody:
C, F, G, C (x2)

Melody(1st part):
C, F, G, C (x4)

Melody (2nd Part):
*Chords twice as long as last ones
F, C, G, C (x2)

Melody:

E|--5h7--8---------------------------|----------------------------------|
B|---------8-6-5-6-5-----5-----------|----------------------------5-6-8-|
G|-------------------5-7---5-4-5-----|----------------------4-5-7-------|
D|-------------------------------7-5-|--5h7--5h7--5-5---5-7-------------|
A|-----------------------------------|----------------------------------|
E|-----------------------------------|----------------------------------|

E|--5h7--8-10-8-7-8-----|-------------------------------------------------------|
B|------------------8-6-|-5-6-5----------8------------8---8---8---8-8h10--8-6-5-|
G|----------------------|-------5---5/7----7-7h9----9---9---9---9---------------|
D|----------------------|-------------------------------------------------------|
A|----------------------|-------------------------------------------------------|
E|----------------------|-------------------------------------------------------|

E|----------8-7-8-10-7-5h7-5----------8--7-8-7-8-10-7-----------------------|
B|--8-6-5-6------------------8--7-8-------------------10-8-8-10-8----8------|
G|----------------------------------------------------------------10---10-9-|
D|--------------------------------------------------------------------------|
A|--------------------------------------------------------------------------|
E|--------------------------------------------------------------------------|

E|--7-8-7----8-7-8-10-7-------------8-7-8--10--8-7-6-5--------------------------------|
B|--------10------------8h10--8-7-8--------------------7-8-9-10--6--8--6-8-6----------|
G|---------------------------------------------------------------------------9--9-8-7-|
D|------------------------------------------------------------------------------------|
A|------------------------------------------------------------------------------------|
E|------------------------------------------------------------------------------------|
            
Submit corrections

comments powered by Disqus
↑ Back to top | Kingdom Hearts Tabs for Destiny Islands. Lyrics for acoustic guitar and electric guitar. Tablatures and chords are parodies/interpretations of the original songs. You may use it for private study, scholarship, research or language learning purposes only