» » »

Dearly Beloved Tabs (ver.3)

Artists:  A B C D E F G H I J K L M N O P Q R S T U V W X Y Z # 

Dearly Beloved Tabs (ver.3)

Kingdom Hearts
Rating:
5/5 (6 votes)

Hard to play? Try these video lessons and learn fast.
                Okay so I was looking through here and all of these "dearly beloved" tabs suck!
It's all that one string song BS.

I know of two ways to play this that sound really good!

I will post both here...


WAY#1 - this is the easiest to learn
On this one you can play it like this or put a cappo on the 7th fret for a higher tone.

e|-------------------x------------------------x-----|
B|-0---0-------------2---2--0---0-------------2---2-|
G|-------------------0------------------------0-----|
D|-------4---4-2---2-2-2----------4---4-2---2-2-2---|
A|-------------------0--------0-----0-----0---0-----|
E|---3-----3-----3---x------------------------x-----|

e|-------------2---2-0h2p0-------------------------|
B|-3---3-2---2-------------3---3-2---2-0---0-------|
G|-------------------------------------------2---2-|
D|---0-----0-----0-----------0-----0-----0-----0---|
A|-------------------------------------------------|
E|-------------------------------------------------| And repeat however many times
until the song is over pretty much.


Way#2 - This one is not for beginners!
This way sounds like the piano version

e|--7---------7--------------0--------0--9--------9--7-------|
B|------8--------7--------7-----0-----------0-----------0----|
G|---------7--------7--------------7-----------0-----------6-|
D|---------------------9-------------------------------------|
A|--10-----------------------10----------------------0-------|
E|-----------------------------------------------------------|...

e|-7--------------0--------|
B|----7--------7-----0-----|
G|-------6--------------6--|
D|----------7--------------|
A|----------------0--------|
E|-------------------------|, The tab isn't over yet but I can't type anymore.


For a download of this full TAB (WAY#2) go to
            
Hard to play? Try these video lessons and learn fast. | Correct




comments powered by Disqus
↑ Back to top | Tablatures and chords are parodies/interpretations of the original songs. You may use it for private study, scholarship, research or language learning purposes only