>
 >
This Place Is Terrible 2

This Place Is Terrible 2 Bass Tabs

King Diamond - This Place Is Terrible 2 chords, tabs, tablatures, lyrics

Guitar lessons | Add/correct | Request | Top 50 tabs Artists:  A B C D E F G H I J K L M N O P Q R S T U V W X Y Z 0-9

This Place Is Terrible 2 Bass Tabs – King Diamond

CD, Sheet music, Poster

Do you like This Place Is Terrible 2? Share with your friends now
Bass TabsBass Tabs v2
-------------------------------------------------------------------------------
		    THIS PLACE IS TERRIBLE - KING DIAMOND
-------------------------------------------------------------------------------


Tuning: EADG

0:00->
G|---------------------------------------------------------------------------|
D|---------------------------------------------------------------------------|
A|----------------------------5------------5---------5-5-5-5-----------------|
E|--0------------0-----------------------------------------------------------|

G|---------------------------------------------------------------------------|
D|---------------------------------------------------------------------------|
A|--5h7---------------5-5s7---------------7-7s5---5---5---5---5s7-5----------|
E|--------0---0---0-----------0---0---0--------------------------------------|

G|---------------------------------------------------------------------------|
D|---------------------------------------------------------------------------|
A|--5s7---------------7-7s5---5---5---5---5s7-5---5s7------------------------|
E|--------0---0---0-------------------------------------0---0---0------------|

G|---------------------------------------------------------------------------|
D|--5---5-4------------------------------------------------------------------|
A|----------5---5---5---2---5---5-7------------------------------------------|
E|---------------------------------------------------------------------------|

0:36->
G|---------------------------------------------------------------------------|
D|---------------------------------------------------------------------------|
A|--4-4---4-4---4-4---2----2---3---4-4---4-4---4-4---2----2---3--------------|
E|---------------------------------------------------------------------------|

0:49->
G|---------------------------------------------------------------------------|
D|---------------------------------------------------------------------------|
A|--0-0-0-0---0-0-0-0-0-0-0---0-0-0-4-4-4-4---4-4-4-4-4-4-4---4-4-4----------|
E|---------------------------------------------------------------------------|

G|---------------------------------------------------------------------------|
D|---------------------------------------------------------------------------|
A|--0-0-0-0---0-0-0-0-0-0-0---0-0-0-4-4-4-4---4-4-4-4-4-4-4---4-4-0----------|
E|---------------------------------------------------------------------------|

G|---------------------------------------------------------------------------|
D|---------------------------------------------------------------------------|
A|--2------------------------------------------------------------------------|
E|----------5------4---------------------------------------------------------|

1:04->
G|---------------------------------------------------------------------------|
D|---------------------------------------------------------------------------|
A|--4-4-4---4---4---4-4-4---4---4---4-4-4---4---4-2-----------5--------------|
E|----------------------------------------------------0-5-6-7---7-6----------|

G|---------------------------------------------------------------------------|
D|---------------------------------------------------------------------------|
A|--4-4-4---4---4---4-4-4---4---4---4-4-4---4---4-2-----------5--------------|
E|----------------------------------------------------0-5-6-7---7-6----------|

1:16->
G|---------------------------------------------------------------------------|
D|---------------------------------------------------------------------------|
A|--4-4-4-4-4-4-4-4-4-4-4-4-4-4-4-4-4-4-4-4-4-4-4-2-----------5--------------|
E|----------------------------------------------------0-5-6-7---7-6----------|

G|---------------------------------------------------------------------------|
D|---------------------------------------------------------------------------|
A|--4-4-4-4-4-4-4-4-4-4-4-4-4-4-4-4-4-4-4-4-4-4-4-2-----------5--------------|
E|----------------------------------------------------0-5-6-7---7-6----------|

1:28->
G|---------------------------------------------------------------------------|
D|---------------------------------------------------------------------------|
A|--3-----3-----3-------------5-----3-----3-----3-------------5--------------|
E|----5-----4-----3---0-5-6-7---7-6---5-----4-----3---0-5-6-7---7------------|

G|---------------------------------------------------------------------------|
D|---------------------------------------------------------------------------|
A|--3-----3-----3-------------5-----3-----3-----3----------------------------|
E|----5-----4-----3---0-5-6-7---7-6---5-----4-----3--------------------------|

1:41->
G|---------------------------------------------------------------------------|
D|---------------------------------------------------------------------------|
A|--4-4---4-4---4-4---2----2---3---------------------------------------------|
E|---------------------------------------------------------------------------|

G|---------------------------------------------------------------------------|
D|---------------------------------------------------------------------------|
A|--0-0-0-0---0-0-0-0-0-0-0---0-0-0-4-4-4-4---4-4-4-4-4-4-4---4-4-4----------|
E|---------------------------------------------------------------------------|

G|---------------------------------------------------------------------------|
D|---------------------------------------------------------------------------|
A|--0-0-0-0---0-0-0-0-0-0-0---0-0-0-4-4-4-4---4-4-4-4-4-4-4---4-4-0----------|
E|---------------------------------------------------------------------------|

G|---------------------------------------------------------------------------|
D|---------------------------------------------------------------------------|
A|--2------------------------------------------------------------------------|
E|----------5-------4--------------------------------------------------------|

2:02->
G|---------------------------------------------------------------------------|
D|---------------------------------------------------------------------------|
A|--4-4-4---4---4---4-4-4---4---4---4-4-4---4---4-2-----------5--------------|
E|----------------------------------------------------0-5-6-7---7-6----------|

G|---------------------------------------------------------------------------|
D|---------------------------------------------------------------------------|
A|--4-4-4---4---4---4-4-4---4---4---4-4-4---4---4-2-----------5--------------|
E|----------------------------------------------------0-5-6-7---7-6----------|

2:14->
G|---------------------------------------------------------------------------|
D|---------------------------------------------------------------------------|
A|--4-4-4-4-4-4-4-4-4-4-4-4-4-4-4-4-4-4-4-4-4-4-4-2-----------5--------------|
E|----------------------------------------------------0-5-6-7---7-6----------|

G|---------------------------------------------------------------------------|
D|---------------------------------------------------------------------------|
A|--4-4-4-4-4-4-4-4-4-4-4-4-4-4-4-4-4-4-4-4-4-4-4-2-----------5--------------|
E|----------------------------------------------------0-5-6-7---7-6----------|

2:27->
G|---------------------------------------------------------------------------|
D|---------------------------------------------------------------------------|
A|--3-----3-----3-------------5-----3-----3-----3-------------5--------------|
E|----5-----4-----3---0-5-6-7---7-6---5-----4-----3---0-5-6-7---7------------|

G|---------------------------------------------------------------------------|
D|---------------------------------------------------------------------------|
A|--3-----3-----3-------------5-----3-----3-----3----------------------------|
E|----5-----4-----3---0-5-6-7---7-6---5-----4-----3--------------------------|

2:39->
G|---------------------------------------------------------------------------|
D|---------------------------------------------------------------------------|
A|--0-0------0------5-5------5------0---0---0---0------5---5---5-5-5-5-------|
E|---------------------------------------------------------------------------|

2:51->
G|---------------------------------------------------------------------------|
D|---------------------------------------------------------------------------|
A|--0-0-0-0-0-0-0-0-0-0-0-0-0-0-0-0-5-5-5-5-5-5-5-5-5-5-5-5-5---5------------|
E|---------------------------------------------------------------------------|

G|---------------------------------------------------------------------------|
D|---------------------------------------------------------------------------|
A|--0-0-0-0-0-0-0-0-0-0-0-0-0-0-0-0-5-5-5-5-5-5-5-5-5-5-5-5-5---5------------|
E|---------------------------------------------------------------------------|

3:03
G|---------------------------------------------------------------------------|
D|---------------------------------------------------------------------------|
A|----------------------------------4-4-4-4-4-4-4-4-4-4-4-4-4-4-4-4----------|
E|--0------------------------------------------------------------------------|

G|---------------------------------------------------------------------------|
D|---------------------------------------------------------------------------|
A|----------------------------------4-4-4-4-4-4-4-4-4-4-4-4-4-4-4-4----------|
E|--0------------------------------------------------------------------------|

3:15->
G|---------------------------------------------------------------------------|
D|---------------------------------------------------------------------------|
A|--0-0-0-0-0-0-0-0-0-0-0-0-0-0-0-0-5-5-5-5-5-5-5-5-5-5-5-5-5---5------------|
E|---------------------------------------------------------------------------|

G|---------------------------------------------------------------------------|
D|---------------------------------------------------------------------------|
A|--0-0-0-0-0-0-0-0-0-0-0-0-0-0-0-0-5-5-5-5-5-5-5-5-5-5-5-5-5---5------------|
E|---------------------------------------------------------------------------|

3:28->
G|---------------------------------------------------------------------------|
D|---------------------------------------------------------------------------|
A|----------------------------------4-4-4-4-4-4-4-4-4-4-4-4-4-4-4-4----------|
E|--0------------------------------------------------------------------------|

G|---------------------------------------------------------------------------|
D|---------------------------------------------------------------------------|
A|----------------------------------4-4-4-4-4-4-4-4-4-4-4-4-4-4-4-4----------|
E|--0------------------------------------------------------------------------|

3:40->
G|---------------------------------------------------------------------------|
D|---------------------------------------------------------------------------|
A|---------------------------------------------------------------------------|
E|--0----------------0-------------------------------------------------------|

3:46->
G|---------------------------------------------------------------------------|
D|---------------------------------------------------------------------------|
A|----------------------------------------------------6-6-6-7-6-6-6-6--------|
E|--4-4-4-4-4-4-4-4-4-4-4-4-4-4-4-4-4-4-4-4-4-4-4-4-4------------------------|

G|---------------------------------------------------------------------------|
D|---------------------------------------------------------------------------|
A|----------------------------------------------------6-6-6-7-6-6-6-6--------|
E|--4-4-4-4-4-4-4-4-4-4-4-4-4-4-4-4-4-4-4-4-4-4-4-4-4------------------------|

3:58->
G|---------------------------------------------------------------------------|
D|---------------------------------------------------------------------------|
A|----------------------------------------------------6-6-6-7-6-6-6-6--------|
E|--4-4-4-4-4-4-4-4-4-4-4-4-4-4-4-4-4-4-4-4-4-4-4-4-4------------------------|

G|---------------------------------------------------------------------------|
D|---------------------------------------------------------------------------|
A|----------------------------------------------------6-6-6-7-6-6-6-6--------|
E|--4-4-4-4-4-4-4-4-4-4-4-4-4-4-4-4-4-4-4-4-4-4-4-4-4------------------------|

4:10->
G|---------------------------------------------------------------------------|
D|----------------------------------------------------666666-----------------|
A|--2-2-2-2-2-2-2-2-4-4-4-4-4-4-4-4-666666888888999999-----------------------|
E|---------------------------------------------------------------------------|

G|---------------------------------------------------------------------------|
D|---------------------------------------------------------------------------|
A|------7-----7---7-6-6-6-6-6-6-6-6-6---------5---5-----------5---5----------|
E|--0-0---0-0---0-----------------------4-4-4-------4-4-4-4-4----------------|

4:23->
G|---------------------------------------------------------------------------|
D|----------------------------------------------------6----------------------|
A|--2-2-2-2-2-2-2-2-4-4-4-4-4-4-4-4-666666888888999999-986-------------------|
E|--------------------------------------------------------97-----------------|

G|---------------------------------------------------------------------------|
D|---------------------------------------------------------------------------|
A|------7-----7---7-6-6-6-6-6-6-6-6------------------------------------------|
E|--0-0---0-0---0------------------------------------------------------------|

4:32->
G|---------------------------------------------------------------------------|
D|---------------------------------------------------------------------------|
A|----------------------------------------------------6-6-6-7-6-6-6-6--------|
E|--4-4-4-4-4-4-4-4-4-4-4-4-4-4-4-4-4-4-4-4-4-4-4-4-4------------------------|

G|---------------------------------------------------------------------------|
D|---------------------------------------------------------------------------|
A|----------------------------------------------------6-6-6-7-6-6-6-6--------|
E|--4-4-4-4-4-4-4-4-4-4-4-4-4-4-4-4-4-4-4-4-4-4-4-4-4------------------------|

4:44->
G|---------------------------------------------------------------------------|
D|---------------------------------------------------------------------------|
A|----------------------------------------------------6-6-6-7-6-6-6-6--------|
E|--4-4-4-4-4-4-4-4-4-4-4-4-4-4-4-4-4-4-4-4-4-4-4-4-4------------------------|

G|---------------------------------------------------------------------------|
D|---------------------------------------------------------------------------|
A|----------------------------------------------------6-6-6-7-6-6-6-6--------|
E|--4-4-4-4-4-4-4-4-4-4-4-4-4-4-4-4-4-4-4-4-4-4-4-4-4------------------------|

4:56->
G|---------------------------------------------------------------------------|
D|---------------------------------------------------------------------------|
A|----------------------------------------------------6-6-6-7-6-6-6-6--------|
E|--4-4-4-4-4-4-4-4-4-4-4-4-4-4-4-4-4-4-4-4-4-4-4-4-4------------------------|

G|---------------------------------------------------------------------------|
D|---------------------------------------------------------------------------|
A|----------------------------------------------------6-6-6-7-6-6-6-6--------|
E|--4-4-4-4-4-4-4-4-4-4-4-4-4-4-4-4-4-4-4-4-4-4-4-4-4------------------------|

5:08->
G|---------------------------------------------------------------------------|
D|---------------------------------------------------------------------------|
A|----------------------------------------------------6-6-6-7-6-6-6-6--------|
E|--4-4-4-4-4-4-4-4-4-4-4-4-4-4-4-4-4-4-4-4-4-4-4-4-4------------------------|

G|---------------------------------------------------------------------------|
D|---------------------------------------------------------------------------|
A|---------------------------------------------------------------------------|
E|--4-4-4-4-4-4-4-4-4-4-4-4-4-4-4-4-4-4-4------------------------------------|


| /  slide up
| \  slide down
| h  hammer-on
| p  pull-off
| ~  vibrato
| +  harmonic
| x  Mute note
===============================================================================





Comments


Popular King Diamond tabs & chords
Insanity Bass Tabs
Charon 1 Tabs
Digging Graves Tabs
Dreams Tabs
Haunted 1 Tabs
Help!!! Tabs
I'm Not A Stranger Tabs
Insanity 1 Tabs
Shapes Of Black Tabs
The Girl In The Bloody Dress Tabs


Song lyrics



↑ Back to top | Tablatures and chords are parodies/interpretations of the original songs. You may use it for private study, scholarship, research or language learning purposes only
© 2014 AZChords.com Contact us | Privacy policy | DMCA | Add/correct tabs | Request tabs | Top 50 tabs