>
 >
This Place Is Terrible

This Place Is Terrible Bass Tabs

King Diamond - This Place Is Terrible chords, tabs, tablatures, lyrics

Guitar lessons | Add/correct | Request | Top 50 tabs Artists:  A B C D E F G H I J K L M N O P Q R S T U V W X Y Z 0-9

This Place Is Terrible Bass Tabs – King Diamond

CD, Sheet music, Poster

Do you like This Place Is Terrible? Share with your friends now
Bass TabsBass Tabs v2
its a 4 string standard tuned bass

E||------------------|-------------------|------------------|
B||------------------|-------------------|------------------|
G||------------------|-------------------|------------------|
D||------------------|-------------------|------------------|
A||------------------|-------------------|------------------|
E||------------------|--0----------------|------------------|


                                                                              
-------------------|------------------|-------------------|------------------|
-------------------|------------------|-------------------|------------------|
-------------------|------------------|-------------------|------------------|
-------------------|------------------|-------------------|------------------|
-------------------|------------------|--5----------------|------------------|
--0----------------|------------------|-------------------|------------------|


                                                                 
-------------------|----------------------|---------------------|
-------------------|----------------------|---------------------|
-------------------|----------------------|---------------------|
-------------------|----------------------|---------------------|
--5----------------|----------5--5--5--5--|--5--7---------------|
-------------------|----------------------|------------0--------|


                                                                  
---------------------|---------------------|---------------------|
---------------------|---------------------|---------------------|
---------------------|---------------------|---------------------|
---------------------|---------------------|---------------------|
----------------5----|--5--7---------------|----------------7----|
--0--------0---------|------------0--------|--0--------0---------|


                                                                   
---------------------|----------------------|---------------------|
---------------------|----------------------|---------------------|
---------------------|----------------------|---------------------|
---------------------|----------------------|---------------------|
--7--5------5--------|--5--------5--7--5----|--5--7---------------|
---------------------|----------------------|------------0--------|


                                                                   
---------------------|---------------------|----------------------|
---------------------|---------------------|----------------------|
---------------------|---------------------|----------------------|
---------------------|---------------------|----------------------|
----------------7----|--7--5------5--------|--5--------5--7--5----|
--0--------0---------|---------------------|----------------------|


                                                                   
---------------------|---------------------|----------------------|
---------------------|---------------------|----------------------|
---------------------|---------------------|----------------------|
---------------------|----------------5----|--5--4----------------|
--5--7---------------|---------------------|--------5----5--------|
------------0--------|--0--------0---------|----------------------|


                                                              
---------------------|--------------------|------------------|
---------------------|--------------------|------------------|
---------------------|--------------------|------------------|
---------------------|--------------------|------------------|
--5--------2----5----|--5--7--------------|------------------|
---------------------|--------------------|------------------|


                                                               
--------------------|--------------------|--------------------|
--------------------|--------------------|--------------------|
--------------------|--------------------|--------------------|
--------------------|--------------------|--------------------|
--4--4--------------|--4--4--------------|--4--4--------------|
--------------------|--------------------|--------------------|


                                                                
---------------------|--------------------|--------------------|
---------------------|--------------------|--------------------|
---------------------|--------------------|--------------------|
---------------------|--------------------|--------------------|
----2------2----3----|--4--4--------------|--4--4--------------|
---------------------|--------------------|--------------------|


                                                                    
--------------------|---------------------|------------------------|
--------------------|---------------------|------------------------|
--------------------|---------------------|------------------------|
--------------------|---------------------|------------------------|
--4--4--------------|----2------2----3----|--0--0--0--0------0--0--|
--------------------|---------------------|------------------------|


                                                                           
------------------------|------------------------|------------------------|
------------------------|------------------------|------------------------|
------------------------|------------------------|------------------------|
------------------------|------------------------|------------------------|
--0--0--0--0------0--0--|--4--4--4--4------4--4--|--4--4--4--4------4--4--|
------------------------|------------------------|------------------------|


                                                                           
------------------------|------------------------|------------------------|
------------------------|------------------------|------------------------|
------------------------|------------------------|------------------------|
------------------------|------------------------|------------------------|
--0--0--0--0------0--0--|--0--0--0--0------0--0--|--4--4--4--4------4--4--|
------------------------|------------------------|------------------------|


                                                                  
------------------------|-------------------|--------------------|
------------------------|-------------------|--------------------|
------------------------|-------------------|--------------------|
------------------------|-------------------|--------------------|
--4--4--4--4------4--0--|--2----------------|--0-----------------|
------------------------|-------------------|-----------4--------|


                                                                         
-----------------------|-----------------------|------------------------|
-----------------------|-----------------------|------------------------|
-----------------------|-----------------------|------------------------|
-----------------------|-----------------------|------------------------|
--4--4--4----4----4----|--4--4--4----4----4----|--4--4--4----4----4--2--|
-----------------------|-----------------------|------------------------|


                                                                          
-------------------------|-----------------------|-----------------------|
-------------------------|-----------------------|-----------------------|
-------------------------|-----------------------|-----------------------|
-------------------------|-----------------------|-----------------------|
----------------5--------|--4--4--4----4----4----|--4--4--4----4----4----|
----0--5--6--7-----7--6--|-----------------------|-----------------------|


                                                                              
------------------------|-------------------------|--------------------------|
------------------------|-------------------------|--------------------------|
------------------------|-------------------------|--------------------------|
------------------------|-------------------------|--------------------------|
--4--4--4----4----4--2--|----------------5--------|--4--4--4--4--4--4--4--4--|
------------------------|----0--5--6--7-----7--6--|--------------------------|


                                                                                
--------------------------|--------------------------|-------------------------|
--------------------------|--------------------------|-------------------------|
--------------------------|--------------------------|-------------------------|
--------------------------|--------------------------|-------------------------|
--4--4--4--4--4--4--4--4--|--4--4--4--4--4--4--4--2--|----------------5--------|
--------------------------|--------------------------|----0--5--6--7-----7--6--|


                                                      
--------------------------|--------------------------|
--------------------------|--------------------------|
--------------------------|--------------------------|
--------------------------|--------------------------|
--4--4--4--4--4--4--4--4--|--4--4--4--4--4--4--4--4--|
--------------------------|--------------------------|


                                                                              
--------------------------|-------------------------|------------------------|
--------------------------|-------------------------|------------------------|
--------------------------|-------------------------|------------------------|
--------------------------|-------------------------|------------------------|
--4--4--4--4--4--4--4--2--|----------------5--------|--3-------3-------3-----|
--------------------------|----0--5--6--7-----7--6--|-----5-------4-------3~-|


                                                                            
-------------------------|------------------------|------------------------|
-------------------------|------------------------|------------------------|
-------------------------|------------------------|------------------------|
-------------------------|------------------------|------------------------|
----------------5--------|--3-------3-------3-----|----------------5-------|
----0--5--6--7-----7--6--|-----5-------4-------3~-|----0--5--6--7-----7~---|


                                                                            
------------------------|-------------------------|------------------------|
------------------------|-------------------------|------------------------|
------------------------|-------------------------|------------------------|
------------------------|-------------------------|------------------------|
--3-------3-------3-----|----------------5--------|--3-------3-------3-----|
-----5-------4-------3~-|----0--5--6--7-----7--6--|-----5-------4-------3~-|


                                                             
------------------|--------------------|--------------------|
------------------|--------------------|--------------------|
------------------|--------------------|--------------------|
------------------|--------------------|--------------------|
------------------|--4--4--------------|--4--4--------------|
------------------|--------------------|--------------------|


                                                                    
--------------------|---------------------|------------------------|
--------------------|---------------------|------------------------|
--------------------|---------------------|------------------------|
--------------------|---------------------|------------------------|
--4--4--------------|----2------2----3----|--0--0--0--0------0--0--|
--------------------|---------------------|------------------------|


                                                                           
------------------------|------------------------|------------------------|
------------------------|------------------------|------------------------|
------------------------|------------------------|------------------------|
------------------------|------------------------|------------------------|
--0--0--0--0------0--0--|--4--4--4--4------4--4--|--4--4--4--4------4--4--|
------------------------|------------------------|------------------------|


                                                                           
------------------------|------------------------|------------------------|
------------------------|------------------------|------------------------|
------------------------|------------------------|------------------------|
------------------------|------------------------|------------------------|
--0--0--0--0------0--0--|--0--0--0--0------0--0--|--4--4--4--4------4--4--|
------------------------|------------------------|------------------------|


                                                                  
------------------------|-------------------|--------------------|
------------------------|-------------------|--------------------|
------------------------|-------------------|--------------------|
------------------------|-------------------|--------------------|
--4--4--4--4------4--0--|--2----------------|--0-----------------|
------------------------|-------------------|-----------4--------|


                                                                         
-----------------------|-----------------------|------------------------|
-----------------------|-----------------------|------------------------|
-----------------------|-----------------------|------------------------|
-----------------------|-----------------------|------------------------|
--4--4--4----4----4----|--4--4--4----4----4----|--4--4--4----4----4--2--|
-----------------------|-----------------------|------------------------|


                                                                          
-------------------------|-----------------------|-----------------------|
-------------------------|-----------------------|-----------------------|
-------------------------|-----------------------|-----------------------|
----------------0--------|-----------------------|-----------------------|
-------0--1--2-----2--1--|--4--4--4----4----4----|--4--4--4----4----4----|
----0--------------------|-----------------------|-----------------------|


                                                                              
------------------------|-------------------------|--------------------------|
------------------------|-------------------------|--------------------------|
------------------------|-------------------------|--------------------------|
------------------------|----------------0--------|--------------------------|
--4--4--4----4----4--2--|-------0--1--2-----2--1--|--4--4--4--4--4--4--4--4--|
------------------------|----0--------------------|--------------------------|


                                                                                
--------------------------|--------------------------|-------------------------|
--------------------------|--------------------------|-------------------------|
--------------------------|--------------------------|-------------------------|
--------------------------|--------------------------|----------------0--------|
--4--4--4--4--4--4--4--4--|--4--4--4--4--4--4--4--2--|-------0--1--2-----2--1--|
--------------------------|--------------------------|----0--------------------|


                                                      
--------------------------|--------------------------|
--------------------------|--------------------------|
--------------------------|--------------------------|
--------------------------|--------------------------|
--4--4--4--4--4--4--4--4--|--4--4--4--4--4--4--4--4--|
--------------------------|--------------------------|


                                                                              
--------------------------|-------------------------|------------------------|
--------------------------|-------------------------|------------------------|
--------------------------|-------------------------|------------------------|
--------------------------|-------------------------|------------------------|
--4--4--4--4--4--4--4--2--|----------------5--------|--3-------3-------3-----|
--------------------------|----0--5--6--7-----7--6--|-----5-------4-------3--|


                                                                            
-------------------------|------------------------|------------------------|
-------------------------|------------------------|------------------------|
-------------------------|------------------------|------------------------|
-------------------------|------------------------|------------------------|
----------------5--------|--3-------3-------3-----|----------------5-------|
----0--5--6--7-----7--6--|-----5-------4-------3--|----0--5--6--7-----7~---|


                                                                            
------------------------|-------------------------|------------------------|
------------------------|-------------------------|------------------------|
------------------------|-------------------------|------------------------|
------------------------|-------------------------|------------------------|
--3-------3-------3-----|----------------5--------|--3-------3-------3-----|
-----5-------4-------3--|----0--5--6--7-----7--6--|-----5-------4-------3--|


                                                            
------------------|---------------------|------------------|
------------------|---------------------|------------------|
------------------|---------------------|------------------|
------------------|---------------------|------------------|
------------------|--0--0------------0--|------------------|
------------------|---------------------|------------------|


                                                              
---------------------|------------------|--------------------|
---------------------|------------------|--------------------|
---------------------|------------------|--------------------|
---------------------|------------------|--------------------|
--5--5------------5--|------------------|--0--------0--------|
---------------------|------------------|--------------------|


                                                                 
--------------------|--------------------|----------------------|
--------------------|--------------------|----------------------|
--------------------|--------------------|----------------------|
--------------------|--------------------|----------------------|
--0--------0--------|--5--------5--------|--5----5----5----5----|
--------------------|--------------------|----------------------|


                                                      
--------------------------|--------------------------|
--------------------------|--------------------------|
--------------------------|--------------------------|
--------------------------|--------------------------|
--0--0--0--0--0--0--0--0--|--0--0--0--0--0--0--0--0--|
--------------------------|--------------------------|


                                                                               
--------------------------|------------------------|--------------------------|
--------------------------|------------------------|--------------------------|
--------------------------|------------------------|--------------------------|
--------------------------|------------------------|--------------------------|
--5--5--5--5--5--5--5--5--|--5--5--5--5--5----5----|--0--0--0--0--0--0--0--0--|
--------------------------|------------------------|--------------------------|


                                                                               
--------------------------|--------------------------|------------------------|
--------------------------|--------------------------|------------------------|
--------------------------|--------------------------|------------------------|
--------------------------|--------------------------|------------------------|
--0--0--0--0--0--0--0--0--|--5--5--5--5--5--5--5--5--|--5--5--5--5--5----5----|
--------------------------|--------------------------|------------------------|


                                                                 
------------------|------------------|--------------------------|
------------------|------------------|--------------------------|
------------------|------------------|--------------------------|
------------------|------------------|--------------------------|
------------------|------------------|--4--4--4--4--4--4--4--4--|
------------------|------------------|--------------------------|


                                                                 
--------------------------|------------------|------------------|
--------------------------|------------------|------------------|
--------------------------|------------------|------------------|
--------------------------|------------------|------------------|
--4--4--4--4--4--4--4--4--|------------------|------------------|
--------------------------|------------------|------------------|


                                                      
--------------------------|--------------------------|
--------------------------|--------------------------|
--------------------------|--------------------------|
--------------------------|--------------------------|
--4--4--4--4--4--4--4--4--|--4--4--4--4--4--4--4--4--|
--------------------------|--------------------------|


                                                      
--------------------------|--------------------------|
--------------------------|--------------------------|
--------------------------|--------------------------|
--------------------------|--------------------------|
--0--0--0--0--0--0--0--0--|--0--0--0--0--0--0--0--0--|
--------------------------|--------------------------|


                                                      
--------------------------|--------------------------|
--------------------------|--------------------------|
--------------------------|--------------------------|
--------------------------|--------------------------|
--5--5--5--5--5--5--5--5--|--5--5--5--5--5--5--5--5--|
--------------------------|--------------------------|


                                                      
--------------------------|--------------------------|
--------------------------|--------------------------|
--------------------------|--------------------------|
--------------------------|--------------------------|
--0--0--0--0--0--0--0--0--|--0--0--0--0--0--0--0--0--|
--------------------------|--------------------------|


                                                                         
--------------------------|--------------------------|------------------|
--------------------------|--------------------------|------------------|
--------------------------|--------------------------|------------------|
--------------------------|--------------------------|------------------|
--5--5--5--5--5--5--5--5--|--5--5--5--5--5--5--5--5--|------------------|
--------------------------|--------------------------|------------------|


                                                                         
------------------|--------------------------|--------------------------|
------------------|--------------------------|--------------------------|
------------------|--------------------------|--------------------------|
------------------|--------------------------|--------------------------|
------------------|--4--4--4--4--4--4--4--4--|--4--4--4--4--4--4--4--4--|
------------------|--------------------------|--------------------------|


                                                                 
------------------|------------------|--------------------------|
------------------|------------------|--------------------------|
------------------|------------------|--------------------------|
------------------|------------------|--------------------------|
------------------|------------------|--4--4--4--4--4--4--4--4--|
------------------|------------------|--------------------------|


                                                                  
--------------------------|-------------------|------------------|
--------------------------|-------------------|------------------|
--------------------------|-------------------|------------------|
--------------------------|-------------------|------------------|
--4--4--4--4--4--4--4--4--|-------------------|------------------|
--------------------------|--0----------------|------------------|


                                                                 
-------------------|------------------|-------------------------|
-------------------|------------------|-------------------------|
-------------------|------------------|-------------------------|
-------------------|------------------|-------------------------|
-------------------|------------------|--6----------------------|
--0----------------|------------------|-------4--4--4--4--4--4--|


                                                                          
-------------------------|-------------------------|---------------------|
-------------------------|-------------------------|---------------------|
-------------------------|-------------------------|---------------------|
-------------------------|-------------------------|---------------------|
--6----------------------|--6----------------------|--6------6--6--------|
-------4--4--4--4--4--4--|-------4--4--4--4--4--4--|---------------------|


                                                                              
-------------------------|-------------------------|-------------------------|
-------------------------|-------------------------|-------------------------|
-------------------------|-------------------------|-------------------------|
-------------------------|-------------------------|-------------------------|
--6----------------------|--6----------------------|--6----------------------|
-------4--4--4--4--4--4--|-------4--4--4--4--4--4--|-------4--4--4--4--4--4--|


                                                                          
---------------------|-------------------------|-------------------------|
---------------------|-------------------------|-------------------------|
---------------------|-------------------------|-------------------------|
---------------------|-------------------------|-------------------------|
--6------6--6--------|--6----------------------|--6----------------------|
---------------------|-------4--4--4--4--4--4--|-------4--4--4--4--4--4--|


                                                                          
-------------------------|---------------------|-------------------------|
-------------------------|---------------------|-------------------------|
-------------------------|---------------------|-------------------------|
-------------------------|---------------------|-------------------------|
--6----------------------|--6------6--6--------|--6----------------------|
-------4--4--4--4--4--4--|---------------------|-------4--4--4--4--4--4--|


                                                                          
-------------------------|-------------------------|---------------------|
-------------------------|-------------------------|---------------------|
-------------------------|-------------------------|---------------------|
-------------------------|-------------------------|---------------------|
--6----------------------|--6----------------------|--6------6--6--------|
-------4--4--4--4--4--4--|-------4--4--4--4--4--4--|---------------------|


                                              
----------------------|----------------------|
----------------------|----------------------|
----------------------|----------------------|
----------------------|----------------------|
--2----2----2----2----|--4----4----4----4----|
----------------------|----------------------|


                                                                              
--------------------------------------|--------------------------------------|
--------------------------------------|--------------------------------------|
--------------------------------------|--------------------------------------|
--------------------------------------|--------------------6--6--6--6--6--6--|
--6--6--6--6--6--6--8--8--8--8--8--8--|--9--9--9--9--9--9--------------------|
--------------------------------------|--------------------------------------|


                                                                           
--------------------------|----------------------|------------------------|
--------------------------|----------------------|------------------------|
--------------------------|----------------------|------------------------|
--------2-----------2-----|----------------------|------------------------|
--------------------------|--6----6----6----6----|--6-------------5----5--|
--0--0-----0--0--0-----0--|----------------------|-------4--4--4----------|


                                                                        
-------------------------|----------------------|----------------------|
-------------------------|----------------------|----------------------|
-------------------------|----------------------|----------------------|
-------------------------|----------------------|----------------------|
-----------------5----5--|--2----2----2----2----|--4----4----4----4----|
--4--4--4--4--4----------|----------------------|----------------------|


                                                                              
--------------------------------------|--------------------------------------|
--------------------------------------|--------------------------------------|
--------------------------------------|--------------------------------------|
--------------------------------------|--------------------6-----------------|
--6--6--6--6--6--6--8--8--8--8--8--8--|--9--9--9--9--9--9-----9--8--6--4--2--|
--------------------------------------|--------------------------------------|


                                                                            
--------------------------|----------------------|-------------------------|
--------------------------|----------------------|-------------------------|
--------------------------|----------------------|-------------------------|
--------2-----------2-----|----------------------|-------------------------|
--------------------------|--6----6----6----6----|--6----------------------|
--0--0-----0--0--0-----0--|----------------------|-------4--4--4--4--4--4--|


                                                                          
-------------------------|-------------------------|---------------------|
-------------------------|-------------------------|---------------------|
-------------------------|-------------------------|---------------------|
-------------------------|-------------------------|---------------------|
--6----------------------|--6----------------------|--6------6--6--------|
-------4--4--4--4--4--4--|-------4--4--4--4--4--4--|---------------------|


                                                                              
-------------------------|-------------------------|-------------------------|
-------------------------|-------------------------|-------------------------|
-------------------------|-------------------------|-------------------------|
-------------------------|-------------------------|-------------------------|
--6----------------------|--6----------------------|--6----------------------|
-------4--4--4--4--4--4--|-------4--4--4--4--4--4--|-------4--4--4--4--4--4--|


                                                                          
---------------------|-------------------------|-------------------------|
---------------------|-------------------------|-------------------------|
---------------------|-------------------------|-------------------------|
---------------------|-------------------------|-------------------------|
--6------6--6--------|--6----------------------|--6----------------------|
---------------------|-------4--4--4--4--4--4--|-------4--4--4--4--4--4--|


                                                                          
-------------------------|---------------------|-------------------------|
-------------------------|---------------------|-------------------------|
-------------------------|---------------------|-------------------------|
-------------------------|---------------------|-------------------------|
--6----------------------|--6------6--6--------|--6----------------------|
-------4--4--4--4--4--4--|---------------------|-------4--4--4--4--4--4--|


                                                                          
-------------------------|-------------------------|---------------------|
-------------------------|-------------------------|---------------------|
-------------------------|-------------------------|---------------------|
-------------------------|-------------------------|---------------------|
--6----------------------|--6----------------------|--6------6--6--------|
-------4--4--4--4--4--4--|-------4--4--4--4--4--4--|---------------------|


                                                                              
-------------------------|-------------------------|-------------------------|
-------------------------|-------------------------|-------------------------|
-------------------------|-------------------------|-------------------------|
-------------------------|-------------------------|-------------------------|
--6----------------------|--6----------------------|--6----------------------|
-------4--4--4--4--4--4--|-------4--4--4--4--4--4--|-------4--4--4--4--4--4--|


                                                                          
---------------------|-------------------------|-------------------------|
---------------------|-------------------------|-------------------------|
---------------------|-------------------------|-------------------------|
---------------------|-------------------------|-------------------------|
--6------6--6--------|--6----------------------|--6----------------------|
---------------------|-------4--4--4--4--4--4--|-------4--4--4--4--4--4--|


                                                                          
-------------------------|---------------------|-------------------------|
-------------------------|---------------------|-------------------------|
-------------------------|---------------------|-------------------------|
-------------------------|---------------------|-------------------------|
--6----------------------|--6------6--6--------|--6----------------------|
-------4--4--4--4--4--4--|---------------------|-------4--4--4--4--4--4--|


                                                                          
-------------------------|-------------------------|---------------------|
-------------------------|-------------------------|---------------------|
-------------------------|-------------------------|---------------------|
-------------------------|-------------------------|---------------------|
--6----------------------|--6----------------------|--6------6--6--------|
-------4--4--4--4--4--4--|-------4--4--4--4--4--4--|---------------------|


                                                                          
-------------------------|-------------------------|--------------------||
-------------------------|-------------------------|--------------------||
-------------------------|-------------------------|--------------------||
-------------------------|-------------------------|--------------------||
--6----------------------|--6----------------------|--6-----------------||
-------4--4--4--4--4--4--|-------4--4--4--4--4--4--|-------4------------||





Comments


Popular King Diamond tabs & chords
Midnight Bass Tabs
So Sad Bass Tabs
The Invisible Guests Bass Tabs
Arrival 1 Tabs
Emerencia Tabs
House Of God Tabs
Killer 1 Tabs
No Presents For Christmas Tabs
Sleep Tight Little Baby 1 Tabs
To The Morgue Tabs


Song lyrics



↑ Back to top | Tablatures and chords are parodies/interpretations of the original songs. You may use it for private study, scholarship, research or language learning purposes only
© 2014 AZChords.com Contact us | Privacy policy | DMCA | Add/correct tabs | Request tabs | Top 50 tabs