» » »

The Storm Bass tabs (ver.1)

Artists:  A B C D E F G H I J K L M N O P Q R S T U V W X Y Z # 

The Storm Bass tabs (ver.1)

King Diamond
Rating:
0/5 (0 votes)

Hard to play? Try these video lessons and learn fast.
                G||-------------------|------------------|-------------------|
D||-------------------|------------------|-------------------|
A||--8----------------|------------------|--8----------------|
E||-------------------|------------------|-------------------|


                                                            
--------------------|-------------------|------------------|
--------------------|-------------------|------------------|
----------5----6----|--8----------------|------------------|
--------------------|-------------------|------------------|


                                                                   
--------------------|------------------|--------------------------|
--------------------|------------------|--------------------------|
--5--------------3--|------------------|--------------------------|
--------------------|------------------|--0--0--0--0--0--0--0--0--|


                                                                               
--------------------------|--------------------------|------------------------|
--------------------------|--------------------------|------------------------|
--------------------------|--------------------------|--------------5----6----|
--0--0--0--0--0--0--0--0--|--0--0--0--0--0--0--0--0--|--0--0--0--0------------|


                                                                           
--------------------------|--------------------------|--------------------|
--------------------------|--------------------------|--------------------|
--------------------------|--------------------------|--5--------------3--|
--0--0--0--0--0--0--0--0--|--0--0--0--0--0--0--0--0--|--------------------|


                                                                         
------------------|--------------------------|--------------------------|
------------------|--------------------------|--------------------------|
------------------|--------------------------|--------------------------|
------------------|--0--0--0--0--0--0--0--0--|--0--0--0--0--0--0--0--0--|


                                                                               
--------------------------|------------------------|--------------------------|
--------------------------|------------------------|--------------------------|
--------------------------|--------------5----6----|--------------------------|
--0--0--0--0--0--0--0--0--|--0--0--0--0------------|--0--0--0--0--0--0--0--0--|


                                                                   
--------------------------|--------------------|------------------|
--------------------------|--------------------|------------------|
--------------------------|--5--------------3--|------------------|
--0--0--0--0--0--0--0--0--|--------------------|------------------|


                                                                       
--------------------|------------------------|------------------------|
--------------------|-----0--0----0----0--0--|------------------------|
--2--------2--------|--2---------------------|--5--4--4----4----4--4--|
--------------------|------------------------|------------------------|


                                                                       
-----------------------|---------------------|------------------------|
-----------------------|---------------------|------------------------|
--4--3--3----3----5----|--2--------2------2--|--2--5--5----5----5--5--|
-----------------------|---------------------|------------------------|


                                                                       
------------------------|-----------------------|---------------------|
------------------------|-----------------------|---------------------|
--5--4--4----4----4--4--|--4--3--3----3----5----|--2--------2------2--|
------------------------|-----------------------|---------------------|


                                                                          
------------------------|------------------------|-----------------------|
------------------------|------------------------|-----------------------|
--2--5--5----5----5--5--|--5--4--4----4----4--4--|--4--3--3----3----5----|
------------------------|------------------------|-----------------------|


                                                                        
---------------------|------------------------|------------------------|
--4--------4------4--|--4--7--7----7----7--7--|--7--6--6----6----6--6--|
---------------------|------------------------|------------------------|
---------------------|------------------------|------------------------|


                                                                               
------------------------|--------------------------|--------------------------|
--6--5--5----5----------|--------------------------|--------------------------|
------------------------|--------------------------|--------------------------|
------------------0--0--|--0--0--0--0--0--0--0--0--|--0--0--0--0--0--0--0--0--|


                                                                               
--------------------------|------------------------|--------------------------|
--------------------------|------------------------|--------------------------|
--------------------------|--------------5----6----|--------------------------|
--0--0--0--0--0--0--0--0--|--0--0--0--0------------|--0--0--0--0--0--0--0--0--|


                                                                   
--------------------------|--------------------|------------------|
--------------------------|--------------------|------------------|
--------------------------|--5--------------3--|------------------|
--0--0--0--0--0--0--0--0--|--------------------|------------------|


                                                      
--------------------------|--------------------------|
--------------------------|--------------------------|
--------------------------|--------------------------|
--0--0--0--0--0--0--0--0--|--0--0--0--0--0--0--0--0--|


                                                                               
--------------------------|------------------------|--------------------------|
--------------------------|------------------------|--------------------------|
--------------------------|--------------5----6----|--------------------------|
--0--0--0--0--0--0--0--0--|--0--0--0--0------------|--0--0--0--0--0--0--0--0--|


                                                                     
--------------------------|----------------------|------------------|
--------------------------|----------------------|------------------|
--------------------------|--5-------------5--3--|------------------|
--0--0--0--0--0--0--0--0--|-----------5----------|------------------|


                                                               
---------------------|------------------|---------------------|
---------------------|------------------|---------------------|
--5------3------5----|------------------|--5------3------0----|
---------------------|------------------|---------------------|


                                                            
------------------|---------------------|------------------|
------------------|---------------------|------------------|
------------------|--5------3------5----|------------------|
------------------|---------------------|------------------|


                                                                 
---------------------|------------------|-----------------------|
--7------7-----------|------------------|-----------------------|
----------------7----|------------------|--5--5--5--7------8----|
---------------------|------------------|-----------------------|


                                                                    
---------------------|-----------------------|---------------------|
----5------3----2----|-----------------------|----------------2----|
---------------------|--5--5--5--7------3----|----0------3---------|
---------------------|-----------------------|---------------------|


                                                                    
-----------------------|---------------------|---------------------|
-----------------------|----5------3----2----|--7------7-----------|
--5--5--5--7------8----|---------------------|----------------7----|
-----------------------|---------------------|---------------------|


                                                                 
------------------|------------------------|--------------------|
------------------|------------------------|--------------------|
------------------|------------------------|--7--------7--------|
------------------|--0-0-0-0----0-0-0-0----|--------------------|


                                                                               
------------------------|----------------------------|------------------------|
------------------------|----------------------------|------------------------|
------------------------|-----------5----------------|------------------------|
--0-0-0-0----0-0-0-0----|--7---8--------8---7----5---|--0-0-0-0----0-0-0-0----|


                                                                           
--------------------|------------------------|----------------------------|
--------------------|------------------------|----------------------------|
--7--------7--------|------------------------|---------------5------------|
--------------------|--0-0-0-0----0-0-0-0----|--5---7----8-------8----7---|


                                                                            
------------------------|-------------------------|------------------------|
------------------------|-------------------------|------------------------|
------------------------|--7-8-8-8-8-8-8-7-7-7----|------------------------|
--0-0-0-0----0-0-0-0----|-------------------------|--0-0-0-0----0-0-0-0----|


                                                                                
----------------------------|------------------------|-------------------------|
----------------------------|------------------------|-------------------------|
-----------5----------------|------------------------|--7-8-8-8-8-8-8-7-7-7----|
--7---8--------8---7----5---|--0-0-0-0----0-0-0-0----|-------------------------|


                                                                           
------------------------|----------------------------|--------------------|
------------------------|----------------------------|--------------------|
------------------------|---------------5------------|--5------3----------|
--0-0-0-0----0-0-0-0----|--5---7----8-------8----7---|--------------------|


                                                            
------------------|---------------------|------------------|
------------------|---------------------|------------------|
------------------|--5------3------0----|------------------|
------------------|---------------------|------------------|


                                                                  
---------------------|---------------------|--9------7-----------|
---------------------|----5------3----2----|----------------9----|
--8------7------8----|---------------------|---------------------|
---------------------|---------------------|---------------------|


                                                                          
-------------------|--------------------------|--------------------------|
-------------------|--------------------------|--------------------------|
--------------5----|--------------------------|--------------------------|
-------------------|--0--0--0--0--0--0--0--0--|--0--0--0--0--0--0--0--0--|


                                                                               
--------------------------|------------------------|--------------------------|
--------------------------|------------------------|--------------------------|
--------------------------|--------------5----6----|--------------------------|
--0--0--0--0--0--0--0--0--|--0--0--0--0------------|--0--0--0--0--0--0--0--0--|


                                                                   
--------------------------|--------------------|------------------|
--------------------------|--------------------|------------------|
--------------------------|--5--------------3--|------------------|
--0--0--0--0--0--0--0--0--|--------------------|------------------|


                                                      
--------------------------|--------------------------|
--------------------------|--------------------------|
--------------------------|--------------------------|
--0--0--0--0--0--0--0--0--|--0--0--0--0--0--0--0--0--|


                                                                               
--------------------------|------------------------|--------------------------|
--------------------------|------------------------|--------------------------|
--------------------------|--------------5----6----|--------------------------|
--0--0--0--0--0--0--0--0--|--0--0--0--0------------|--0--0--0--0--0--0--0--0--|


                                                                   
--------------------------|--------------------|------------------|
--------------------------|--------------------|------------------|
--------------------------|--5--------------3--|------------------|
--0--0--0--0--0--0--0--0--|--------------------|------------------|


                                                                       
--------------------|------------------------|------------------------|
--------------------|------------------------|------------------------|
--2--------2--------|--2--5--5----5----5--5--|--5--4--4----4----4--4--|
--------------------|------------------------|------------------------|


                                                                       
-----------------------|---------------------|------------------------|
-----------------------|---------------------|------------------------|
--4--3--3----3----5----|--2--------2------2--|--2--5--5----5----5--5--|
-----------------------|---------------------|------------------------|


                                                                      
------------------------|-----------------------|--------------------|
------------------------|-----------------------|--------------------|
--5--4--4----4----4--4--|--4--3--3----3----5----|--2--------2--------|
------------------------|-----------------------|--------------------|


                                                                          
------------------------|------------------------|-----------------------|
------------------------|------------------------|-----------------------|
--2--5--5----5----5--5--|--5--4--4----4----4--4--|--4--3--3----3----5----|
------------------------|------------------------|-----------------------|


                                                                       
--------------------|------------------------|------------------------|
--4--------4--------|--4--7--7----7----7--7--|--7--6--6----6----6--6--|
--------------------|------------------------|------------------------|
--------------------|------------------------|------------------------|


                                                                 
------------------------|--------------------|------------------|
--6--5--5----7--7--5----|--------------------|------------------|
------------------------|--5------3----------|------------------|
------------------------|--------------------|------------------|


                                                               
---------------------|------------------|---------------------|
---------------------|------------------|---------------------|
--5------3-----------|------------------|--5------3------5----|
----------------5----|------------------|---------------------|


                                                            
------------------|---------------------|------------------|
------------------|--7------7-----------|------------------|
------------------|----------------7----|------------------|
------------------|---------------------|------------------|


                                                                      
-----------------------|---------------------|-----------------------|
-----------------------|----5----------------|-----------------------|
--5--5--5--7------8----|-----------8----7----|--5--5--5--7-----------|
-----------------------|---------------------|------------------8----|


                                                                    
---------------------|-----------------------|---------------------|
---------------------|-----------------------|----5------3----2----|
----------------7----|--5--5--5--7------8----|---------------------|
----5------8---------|-----------------------|---------------------|


                                                                  
---------------------|------------------|------------------------|
--7------7-----------|------------------|------------------------|
----------------7----|------------------|------------------------|
---------------------|------------------|--0-0-0-0----0-0-0-0----|


                                                                           
--------------------|------------------------|----------------------------|
--------------------|------------------------|----------------------------|
--7--------7--------|------------------------|-----------5----------------|
--------------------|--0-0-0-0----0-0-0-0----|--7---8--------8---7----5---|


                                                                       
------------------------|--------------------|------------------------|
------------------------|--------------------|------------------------|
------------------------|--7--------7--------|------------------------|
--0-0-0-0----0-0-0-0----|--------------------|--0-0-0-0----0-0-0-0----|


                                                                                
----------------------------|------------------------|-------------------------|
----------------------------|------------------------|-------------------------|
---------------5------------|------------------------|--7-8-8-8-8-8-8-7-7-7----|
--5---7----8-------8----7---|--0-0-0-0----0-0-0-0----|-------------------------|


                                                                               
------------------------|----------------------------|------------------------|
------------------------|----------------------------|------------------------|
------------------------|-----------5----------------|------------------------|
--0-0-0-0----0-0-0-0----|--7---8--------8---7----5---|--0-0-0-0----0-0-0-0----|


                                                                                
-------------------------|------------------------|----------------------------|
-------------------------|------------------------|----------------------------|
--7-8-8-8-8-8-8-7-7-7----|------------------------|---------------5------------|
-------------------------|--0-0-0-0----0-0-0-0----|--5---7----8-------8----7---|


                                                               
---------------------|------------------|---------------------|
---------------------|------------------|---------------------|
--5------3------5----|------------------|--5------------------|
---------------------|------------------|---------8------5----|


                                                            
------------------|---------------------|------------------|
------------------|---------------------|------------------|
------------------|--5------3------5----|------------------|
------------------|---------------------|------------------|


                                                             
---------------------|------------------|------------------||
--7------7-----------|------------------|------------------||
----------------7----|------------------|------------------||
---------------------|------------------|------------------||
            
Hard to play? Try these video lessons and learn fast. | Correct




comments powered by Disqus
↑ Back to top | Tablatures and chords are parodies/interpretations of the original songs. You may use it for private study, scholarship, research or language learning purposes only