>
 >
The Lake

The Lake Bass Tabs

King Diamond - The Lake chords, tabs, tablatures, lyrics

Guitar lessons | Add/correct | Request | Top 50 tabs Artists:  A B C D E F G H I J K L M N O P Q R S T U V W X Y Z 0-9

The Lake Bass Tabs – King Diamond

CD, Sheet music, Poster

Do you like The Lake? Share with your friends now
Bass TabsTabs
.  - palm mute            /  - slide up to
\  - slide down to        ~  - vibrato
h  - hammer on            b  - Bend
p  - pull off             Suffixes for bend
t  - tap                  f  - full bend    h - half bend
ph - pinched harmonic     q  - quarter bend t - tap bend
*  - need to hear it      ^  - Hold bend    r release bend
x  - Stuccatto            ~  - vibrato bend
,  - slight palm mute     () - ghost note, sustained note
"  - tremolo note         <> - Trill

Tunning E A D G 
 

 Intro   Riff 1                               
|-------|------4*-----4*-----------6h7-6\-4*-----4*--|
|-------|--4-7----4-7----(7)-7-7-7-----------4-7-----|
|------|--------------------------------------------|
|-3-(2)-|--------------------------------------------|
 
 Riff 2
|----------------------------------------------------|
|-------------------------------------------(5)-(5)--|
|------4*-----4*-----------6h7-6\-4*-----4*----------|
|--4-7----4-7----(7)-7-7-7-----------4-7-------------|

|------4*-----4*-----------6h7-6\-4*-----4*----------|
|--4-7----4-7----(7)-7-7-7-----------4-7----(3)------|
|----------------------------------------------------|
|-----------------------------------------------(1)--|

 Chorus
|---------------------|------------------------------------------------|
|---------------------|------------------------------------------------|
|-(5)-5-5-5-5-5-5-(4)-|-4-4-4-4-5-(4)-3-3-3-3-3-3-3-3-3-3-3-3-3-4-(5)--|
|---------------------|------------------------------------------------|

                                                    
|--------------------------------|
|--------------------------------|
|-5-5-5-5-5-(0)-0-0-0-0-0-0------|
|---------------------------(3)--|

repeat riff1
repeat riff2
repeat chorus

 solo
|----------|
|----------|
|----------|
|-(5)-(3)--|                                                            _
                                                                         |
|-----------------------------------------------------|                  |
|-----------------------------------------------------|                  |
|-------------------------(3)-----------------2-3-----|                  |
|-0-2-2-2-2-2-0-2-5-2-0-2-----0-2-2-2-2-2-0-2-----(1)-|  x2              |
                                                                         |
	                                           1             2       > x2
|---------------------------------------------|----------|-------------| |
|---------------------------------------------|----------|-2-1-0-2-1-0-| |
|-0-2-2-2-2-2-0-2-0-2-0-2-(5)-0-2-2-2-2-2-0-2-|-3---3----|-------------| |
|---------------------------------------------|--(1)(1)-|-------------| |
	                                                               _| 
                                                
	                                                             1
|----------------------------------------------------|-----------------|
|----------------------------------------------------|-----------------|
|-(3)-(1)-1/---------(8)---------------5---------(8)-|---7-5---5-------|
|------------0-0-0-0-----0-0-0-0-5-6-7---0-0-0-0-----|-0-----7---7-6-5-|

	                                             1
|------------------------------------------------------|
|------------------------------------------------------|
|---7-5---5---------7-5---5---------7-5---5------------|
|-0-----7---7-6-5-0-----7---7-6-5-0-----7---7-6-5\-(2)-|

repat riff 1
repeat riff 2
repeat chorus
END





Comments


Popular King Diamond tabs & chords
Burn Bass Tabs
This Place Is Terrible Bass Tabs
Trick Or Treat Bass Tabs
A Mansion In Darkness Tabs
Meet Me At Midnight 1 Tabs
No Presents For Christmas Tabs
The Ritual Tabs
The Spiders Lullabye Tabs
The Wheelchair 1 Tabs
Trick Or Treat 1 Tabs


Song lyrics



↑ Back to top | Tablatures and chords are parodies/interpretations of the original songs. You may use it for private study, scholarship, research or language learning purposes only
© 2014 AZChords.com Contact us | Privacy policy | DMCA | Add/correct tabs | Request tabs | Top 50 tabs