>
 >
The Invisible Guests

The Invisible Guests Bass Tabs

King Diamond - The Invisible Guests chords, tabs, tablatures, lyrics

Guitar lessons | Add/correct | Request | Top 50 tabs Artists:  A B C D E F G H I J K L M N O P Q R S T U V W X Y Z 0-9

The Invisible Guests Bass Tabs – King Diamond

CD, Sheet music, Poster

Do you like The Invisible Guests? Share with your friends now
Bass Tabs
G||------------------|------------------|------------------|------------------|
D||------------------|------------------|------------------|------------------|
A||------------------|------------------|------------------|------------------|
E||------------------|------------------|------------------|------------------|


                                                            
-------------------|-------------------|-------------------|
-------------------|-------------------|-------------------|
--0----------------|--0----------------|--0----------------|
-------------------|-------------------|-------------------|


                                                      
--------------------------|--------------------------|
--2--2--2--3--3--3--2--2--|--------------------------|
--------------------------|-----------3--------2-----|
--------------------------|--0--0--0-----0--0-----0--|


                                                      
--------------------------|--------------------------|
--------------------------|--------------------------|
-----------3--------2-----|-----------3--------2-----|
--0--0--0-----0--0-----0--|--0--0--0-----0--0-----0--|


                                                      
--------------------------|--------------------------|
--------------------------|--------------------------|
--2--2--2--3--3--3--2--2--|-----------3--------2-----|
--------------------------|--0--0--0-----0--0-----0--|


                                                      
--------------------------|--------------------------|
--------------------------|--------------------------|
-----------3--------2-----|-----------3--------2-----|
--0--0--0-----0--0-----0--|--0--0--0-----0--0-----0--|


                                                      
--------------------------|--------------------------|
--2--2--2--3--3--3--2--2--|-----------3--------2-----|
--------------------------|--0--0--0-----0--0-----0--|
--------------------------|--------------------------|


                                                      
--------------------------|--------------------------|
-----------3--------2-----|-----------3--------2-----|
--0--0--0-----0--0-----0--|--0--0--0-----0--0-----0--|
--------------------------|--------------------------|


                                                      
--------------------------|--------------------------|
--2--2--2--3--3--3--2--2--|-----------3--------2-----|
--------------------------|--0--0--0-----0--0-----0--|
--------------------------|--------------------------|


                                                      
--------------------------|--------------------------|
-----------3--------2-----|-----------3--------2-----|
--0--0--0-----0--0-----0--|--0--0--0-----0--0-----0--|
--------------------------|--------------------------|


                                                                         
--------------------------|----------------------|----------------------|
--2--2--2--3--3--3--2--2--|----------------------|----------------------|
--------------------------|------------2----1----|----------------------|
--------------------------|--0------0------------|------0--0--2----2----|


                                                                    
----------------------|---------------------|----------------------|
----------------------|---------------------|----------------------|
------------2----1----|------------3--------|------------2----1----|
--0------0------------|------0--0-----------|--0------0------------|


                                                                    
----------------------|----------------------|---------------------|
----------------------|----------------------|---------------------|
----------------------|------------2----1----|------------3--------|
------0--0--2----2----|--0------0------------|------0--0-----------|


                                                      
--------------------------|--------------------------|
-----------3--------2-----|-----------3--------2-----|
--0--0--0-----0--0-----0--|--0--0--0-----0--0-----0--|
--------------------------|--------------------------|


                                                      
--------------------------|--------------------------|
-----------3--------2-----|--2--2--2--3--3--3--2--2--|
--0--0--0-----0--0-----0--|--------------------------|
--------------------------|--------------------------|


                                                      
--------------------------|--------------------------|
-----------3--------2-----|-----------3--------2-----|
--0--0--0-----0--0-----0--|--0--0--0-----0--0-----0--|
--------------------------|--------------------------|


                                                      
--------------------------|--------------------------|
-----------3--------2-----|--2--2--2--3--3--3--2--2--|
--0--0--0-----0--0-----0--|--------------------------|
--------------------------|--------------------------|


                                                      
--------------------------|--------------------------|
--------------------------|--------------------------|
-----------3--------2-----|-----------3--------2-----|
--0--0--0-----0--0-----0--|--0--0--0-----0--0-----0--|


                                                      
--------------------------|--------------------------|
--------------------------|--------------------------|
-----------3--------2-----|--2--2--2--3--3--3--2--2--|
--0--0--0-----0--0-----0--|--------------------------|


                                                      
--------------------------|--------------------------|
--------------------------|--------------------------|
-----------3--------2-----|-----------3--------2-----|
--0--0--0-----0--0-----0--|--0--0--0-----0--0-----0--|


                                                      
--------------------------|--------------------------|
--------------------------|--2--2--2--3--3--3--2--2--|
-----------3--------2-----|--------------------------|
--0--0--0-----0--0-----0--|--------------------------|


                                                      
--------------------------|--------------------------|
-----------3--------2-----|-----------3--------2-----|
--0--0--0-----0--0-----0--|--0--0--0-----0--0-----0--|
--------------------------|--------------------------|


                                                      
--------------------------|--------------------------|
-----------3--------2-----|--2--2--2--3--3--3--2--2--|
--0--0--0-----0--0-----0--|--------------------------|
--------------------------|--------------------------|


                                                      
--------------------------|--------------------------|
-----------3--------2-----|-----------3--------2-----|
--0--0--0-----0--0-----0--|--0--0--0-----0--0-----0--|
--------------------------|--------------------------|


                                                                             
--------------------------|--------------------------|----------------------|
-----------3--------2-----|--2--2--2--3--3--3--2--2--|----------------------|
--0--0--0-----0--0-----0--|--------------------------|------------2----1----|
--------------------------|--------------------------|--0------0------------|


                                                                    
----------------------|----------------------|---------------------|
----------------------|----------------------|---------------------|
----------------------|------------2----1----|------------3--------|
------0--0--2----2----|--0------0------------|------0--0-----------|


                                                                     
----------------------|----------------------|----------------------|
----------------------|----------------------|----------------------|
------------2----1----|----------------------|--2---------2----1----|
--0------0------------|------0--0--2----2----|---------0------------|


                                                                            
---------------------|--------------------------|--------------------------|
---------------------|-----------3--------2-----|-----------3--------2-----|
------------3--------|--0--0--0-----0--0-----0--|--0--0--0-----0--0-----0--|
------0--0-----------|--------------------------|--------------------------|


                                                      
--------------------------|--------------------------|
-----------3--------2-----|--2--2--2--3--3--3--2--2--|
--0--0--0-----0--0-----0--|--------------------------|
--------------------------|--------------------------|


                                                      
--------------------------|--------------------------|
-----------3--------2-----|-----------3--------2-----|
--0--0--0-----0--0-----0--|--0--0--0-----0--0-----0--|
--------------------------|--------------------------|


                                                      
--------------------------|--------------------------|
-----------3--------2-----|--2--2--2--3--3--3--2--2--|
--0--0--0-----0--0-----0--|--------------------------|
--------------------------|--------------------------|


                                                      
--------------------------|--------------------------|
--------------------------|--------------------------|
-----------3--------2-----|-----------3--------2-----|
--0--0--0-----0--0-----0--|--0--0--0-----0--0-----0--|


                                                      
--------------------------|--------------------------|
--------------------------|--------------------------|
-----------3--------2-----|--2--2--2--3--3--3--2--2--|
--0--0--0-----0--0-----0--|--------------------------|


                                                      
--------------------------|--------------------------|
--------------------------|--------------------------|
-----------3--------2-----|-----------3--------2-----|
--0--0--0-----0--0-----0--|--0--0--0-----0--0-----0--|


                                                      
--------------------------|--------------------------|
--------------------------|--2--2--2--3--3--3--2--2--|
-----------3--------2-----|--------------------------|
--0--0--0-----0--0-----0--|--------------------------|


                                                      
--------------------------|--------------------------|
-----------3--------2-----|-----------3--------2-----|
--0--0--0-----0--0-----0--|--0--0--0-----0--0-----0--|
--------------------------|--------------------------|


                                                      
--------------------------|--------------------------|
-----------3--------2-----|--2--2--2--3--3--3--2--2--|
--0--0--0-----0--0-----0--|--------------------------|
--------------------------|--------------------------|


                                                      
--------------------------|--------------------------|
-----------3--------2-----|-----------3--------2-----|
--0--0--0-----0--0-----0--|--0--0--0-----0--0-----0--|
--------------------------|--------------------------|


                                                                             
--------------------------|--------------------------|----------------------|
-----------3--------2-----|--2--2--2--3--3--3--2--2--|----------------------|
--0--0--0-----0--0-----0--|--------------------------|------------2----1----|
--------------------------|--------------------------|--0------0------------|


                                                                    
----------------------|----------------------|---------------------|
----------------------|----------------------|---------------------|
----------------------|------------2----1----|------------3--------|
------0--0--2----2----|--0------0------------|------0--0-----------|


                                                                     
----------------------|----------------------|----------------------|
----------------------|----------------------|----------------------|
------------2----1----|----------------------|--2---------2----1----|
--0------0------------|------0--0--2----2----|---------0------------|


                                                                
---------------------|----------------------|------------------|
---------------------|-------------------0--|------------------|
------------3--------|--2--------2----3-----|------------------|
------0--0-----------|----------------------|------------------|


                                                                  
-------------------0--|-------------------|----------------------|
--2--------2----4-----|----------4--------|-------------------0--|
----------------------|-------------------|--2--------2----3-----|
----------------------|-------------------|----------------------|


                                                               
------------------|---------------------|---------------------|
------------------|---------------------|-----------0---------|
------------------|--4------4------4----|----------------4----|
------------------|---------------------|--2------------------|


                                                                         
----------------------|-------------0-----------|-----------------0--2--|
-------------------0--|----0--2--4-----4--2--0--|--2--------2--4--------|
--2--------2----3-----|-------------------------|-----------------------|
----------------------|-------------------------|-----------------------|


                                                                     
--4--2--0-----------------|----------------------|------------------|
-----------4--2--0--------|-------------------0--|------------------|
--------------------3--0--|--2--------2----3-----|------------------|
--------------------------|----------------------|------------------|


                                                                      
---------------------|---------------------|-------------------------|
---------------------|---------------------|-------------------------|
--4------4------4----|----4------4----3----|--------------3----------|
---------------------|---------------------|--2--2--2--2-------2--2--|


                                                                       
----------------------|-------------------------|---------------------|
-----------------0----|-------------------------|---------------------|
-------3--------------|--------------3----------|-------3-------------|
----2-------3---------|--2--2--2--2-------2--2--|----2-------0--------|


                                                                           
-------------------------|----------------------|-------------------------|
-------------------------|-----------------0----|-------------------------|
--------------3----------|-------3--------------|--------------3----------|
--2--2--2--2-------2--2--|----2-------3---------|--2--2--2--2-------2--2--|


                                                                      
---------------------|-------------------------|---------------------|
---------------------|-------------------------|---------------------|
-------3-------------|--0--0--0--0--0----0--0--|----0--0-------------|
----2-------0--------|-------------------------|------------1--------|


                                                                           
-------------------------|----------------------|-------------------------|
-------------------------|----------------------|-------------------------|
--0--0--0--0--0----0--0--|----0--0----0---------|--0--0--0--0--0----0--0--|
-------------------------|-----------------3----|-------------------------|


                                                                       
---------------------|-------------------------|----------------------|
---------------------|-------------------------|----------------------|
----0--0-------------|--0--0--0--0--0----0--0--|----0--0----0---------|
------------1--------|-------------------------|-----------------3----|


                                                      
--------------------------|--------------------------|
--2--2--2--2--2--2--2--2--|--1--1--1--1--1--1--1--1--|
--------------------------|--------------------------|
--------------------------|--------------------------|


                                                      
--------------------------|--------------------------|
--0--0--0--0--0--0--0--0--|--------------------------|
--------------------------|--4--4--4--4--4--4--4--4--|
--------------------------|--------------------------|


                                                      
--------------------------|--------------------------|
--2--2--2--2--2--2--2--2--|--1--1--1--1--1--1--1--1--|
--------------------------|--------------------------|
--------------------------|--------------------------|


                                                                             
--------------------------|-----------------------|-------------------------|
--0--0--0--0--0--0--0--0--|-----------------------|-------------------------|
--------------------------|--2--------------------|--------------3----------|
--------------------------|-----0----0----0----0--|--2--2--2--2-------2--2--|


                                                                       
----------------------|-------------------------|---------------------|
-----------------0----|-------------------------|---------------------|
-------3--------------|--------------3----------|-------3-------------|
----2-------3---------|--2--2--2--2-------2--2--|----2-------0--------|


                                                                           
-------------------------|----------------------|-------------------------|
-------------------------|-----------------0----|-------------------------|
--------------3----------|-------3--------------|--------------3----------|
--2--2--2--2-------2--2--|----2-------3---------|--2--2--2--2-------2--2--|


                                                                      
---------------------|-------------------------|---------------------|
---------------------|-------------------------|------------3--------|
-------3-------------|--0--0--0--0--0----0--0--|----0--0-------------|
----2-------0--------|-------------------------|---------------------|


                                                                           
-------------------------|----------------------|-------------------------|
-------------------------|----------------------|-------------------------|
--0--0--0--0--0----0--0--|----0--0----0---------|--0--0--0--0--0----0--0--|
-------------------------|-----------------3----|-------------------------|


                                                                      
---------------------|-------------------------|---------------------|
------------3--------|-------------------------|---------------------|
----0--0-------------|--0--0--0--0--0----0--0--|----0--0-------------|
---------------------|-------------------------|------------3--------|


                                                      
--------------------------|--------------------------|
--2--2--2--2--2--2--2--2--|--1--1--1--1--1--1--1--1--|
--------------------------|--------------------------|
--------------------------|--------------------------|


                                                      
--------------------------|--------------------------|
--0--0--0--0--0--0--0--0--|--------------------------|
--------------------------|--4--4--4--4--4--4--4--4--|
--------------------------|--------------------------|


                                                      
--------------------------|--------------------------|
--2--2--2--2--2--2--2--2--|--1--1--1--1--1--1--1--1--|
--------------------------|--------------------------|
--------------------------|--------------------------|


                                                                      
--------------------------|-----------------------|------------------|
--0--0--0--0--0--0--0--0--|-----------------------|------------------|
--------------------------|--2--------------------|------------------|
--------------------------|-----0----0----0----0--|------------------|


                                                                   
-------------------|----------------------|-----------------------|
-------------------|----------------------|-----------------------|
--0----------------|--0--0------0--0------|----------0------------|
-------------------|----------------------|-----------------------|


                                                      
--------------------------|--------------------------|
--------------------------|--------------------------|
-----------3--------2-----|-----------3--------2-----|
--0--0--0-----0--0-----0--|--0--0--0-----0--0-----0--|


                                                      
--------------------------|--------------------------|
--------------------------|--------------------------|
-----------3--------2-----|--2--2--2--3--3--3--2--2--|
--0--0--0-----0--0-----0--|--------------------------|


                                                      
--------------------------|--------------------------|
--------------------------|--------------------------|
-----------3--------2-----|-----------3--------2-----|
--0--0--0-----0--0-----0--|--0--0--0-----0--0-----0--|


                                                      
--------------------------|--------------------------|
--------------------------|--2--2--2--3--3--3--2--2--|
-----------3--------2-----|--------------------------|
--0--0--0-----0--0-----0--|--------------------------|


                                                      
--------------------------|--------------------------|
-----------3--------2-----|-----------3--------2-----|
--0--0--0-----0--0-----0--|--0--0--0-----0--0-----0--|
--------------------------|--------------------------|


                                                      
--------------------------|--------------------------|
-----------3--------2-----|--2--2--2--3--3--3--2--2--|
--0--0--0-----0--0-----0--|--------------------------|
--------------------------|--------------------------|


                                                      
--------------------------|--------------------------|
-----------3--------2-----|-----------3--------2-----|
--0--0--0-----0--0-----0--|--0--0--0-----0--0-----0--|
--------------------------|--------------------------|


                                                                             
--------------------------|--------------------------|----------------------|
-----------3--------2-----|--2--2--2--3--3--3--2--2--|----------------------|
--0--0--0-----0--0-----0--|--------------------------|------------2----1----|
--------------------------|--------------------------|--0------0------------|


                                                                    
----------------------|----------------------|---------------------|
----------------------|----------------------|---------------------|
----------------------|------------2----1----|------------3--------|
------0--0--2----2----|--0------0------------|------0--0-----------|


                                                                    
----------------------|----------------------|---------------------|
----------------------|----------------------|---------------------|
------------2----1----|----------------------|-----------2----1----|
--0------0------------|------0--0--2----2----|--------0------------|


                                                                
---------------------|----------------------|------------------|
---------------------|-------------------0--|------------------|
------------3--------|--2--------2----3-----|------------------|
------0--0-----------|----------------------|------------------|


                                                                  
-------------------0--|-------------------|----------------------|
--2--------2----4-----|----------4--------|-------------------0--|
----------------------|-------------------|--2--------2----3-----|
----------------------|-------------------|----------------------|


                                                               
------------------|---------------------|---------------------|
------------------|---------------------|-----------0---------|
------------------|--4------4------4----|----------------4----|
------------------|---------------------|--2------------------|


                                                                         
----------------------|-------------0-----------|-----------------0--2--|
-------------------0--|----0--2--4-----4--2--0--|--2--------2--4--------|
--2--------2----3-----|-------------------------|-----------------------|
----------------------|-------------------------|-----------------------|


                                                                     
--4--2--0-----------------|----------------------|------------------|
-----------4--2--0--------|-------------------0--|------------------|
--------------------3--0--|--2--------2----3-----|------------------|
--------------------------|----------------------|------------------|


                                                                       
---------------------|---------------------|--------------------------|
---------------------|---------------------|--------------------------|
--4------4------4----|----4------4----3----|--------------------------|
---------------------|---------------------|--2--2--2--2--2--0--2--2--|


                                                                  
------------------|--------------------------|-------------------|
------------------|--------------------------|-------------------|
------------------|--------------------------|-------------------|
------------------|--2--2--2--2--2--0--2--2--|----------3--------|


                                                                         
--------------------------|------------------|--------------------------|
--------------------------|------------------|--------------------------|
--------------------------|------------------|--------------------------|
--2--2--2--2--2--0--2--2--|------------------|--2--2--2--2--2--0--2--2--|


                                                                   
--------------------|--------------------------|------------------|
--------------------|--------------------------|------------------|
--------------------|--------------------------|------------------|
--2--------3--------|--2--2--2--2--2--0--2--2--|------------------|


                                                                          
--------------------------|-------------------|--------------------------|
--------------------------|-------------------|--------------------------|
--------------------------|-------------------|--------------------------|
--2--2--2--2--2--0--2--2--|----------3--------|--2--2--2--2--2--0--2--2--|


                                                                   
------------------|--------------------------|--------------------|
------------------|--------------------------|--0-----------------|
------------------|--------------------------|-----------0--------|
------------------|--2--2--2--2--2--0--2--2--|--------------------|


                                                                
----------------------|------------------|---------------------|
-------------------0--|------------------|--2--------2----4----|
--2--------2----3-----|------------------|---------------------|
----------------------|------------------|---------------------|


                                                               
--0-----------------|----------------------|------------------|
-----------4--------|-------------------0--|------------------|
--------------------|--2--------2----3-----|------------------|
--------------------|----------------------|------------------|


                                                                   
---------------------|---------------------|----------------------|
---------------------|-----------0---------|-------------------0--|
--4------4------4----|----------------4----|--2--------2----3-----|
---------------------|--2------------------|----------------------|


                                                                             
-------------0-----------|-----------------0--2--|--4--2--0-----------------|
----0--2--4-----4--2--0--|--2--------2--4--------|-----------4--2--0--------|
-------------------------|-----------------------|--------------------3--0--|
-------------------------|-----------------------|--------------------------|


                                                                
----------------------|------------------|---------------------|
-------------------0--|------------------|---------------------|
--2--------2----3-----|------------------|--4------4------4----|
----------------------|------------------|---------------------|


                                                                       
---------------------|-------------------------|----------------------|
---------------------|-------------------------|-----------------0----|
----4------4----3----|--------------3----------|-------3--------------|
---------------------|--2--2--2--2-------2--2--|----2-------3---------|


                                                                          
-------------------------|---------------------|-------------------------|
-------------------------|---------------------|-------------------------|
--------------3----------|-------3-------------|--------------3----------|
--2--2--2--2-------2--2--|----2-------0--------|--2--2--2--2-------2--2--|


                                                                       
----------------------|-------------------------|---------------------|
-----------------0----|-------------------------|---------------------|
-------3--------------|--------------3----------|-------3-------------|
----2-------3---------|--2--2--2--2-------2--2--|----2-------0--------|


                                                                           
-------------------------|----------------------|-------------------------|
--------------1----------|-------1---------3----|--------------1----------|
--0--0--0--0-------0--0--|----0-------1---------|--0--0--0--0-------0--0--|
-------------------------|----------------------|-------------------------|


                                                                       
---------------------|-------------------------|----------------------|
-------1-------------|--------------1----------|-------1---------3----|
----0----------------|--0--0--0--0-------0--0--|----0-------1---------|
------------3--------|-------------------------|----------------------|


                                                                           
-------------------------|---------------------|--------------------------|
--------------1----------|-------1-------------|--2--2--2--2--2--2--2--2--|
--0--0--0--0-------0--0--|----0----------------|--------------------------|
-------------------------|------------3--------|--------------------------|


                                                      
--------------------------|--------------------------|
--1--1--1--1--1--1--1--1--|--0--0--0--0--0--0--0--0--|
--------------------------|--------------------------|
--------------------------|--------------------------|


                                                      
--------------------------|--------------------------|
--------------------------|--2--2--2--2--2--2--2--2--|
--4--4--4--4--4--4--4--4--|--------------------------|
--------------------------|--------------------------|


                                                                              
--------------------------|--------------------------|-----------------------|
--1--1--1--1--1--1--1--1--|--0--0--0--0--0--0--0--0--|-----------------------|
--------------------------|--------------------------|--2--------------------|
--------------------------|--------------------------|-----0----0----0----0--|


                                                                          
---------------|-------------------|------------------|------------------|
---------------|-------------------|------------------|------------------|
---------------|-------------------|------------------|------------------|
--2------------|--0----------------|------------------|------------------|


                                                                            
------------------|------------------|------------------|------------------|
------------------|------------------|------------------|------------------|
------------------|------------------|------------------|------------------|
------------------|------------------|------------------|------------------|


                    
------------------||
------------------||
------------------||
------------------||





Comments


Popular King Diamond tabs & chords
Abigail Bass Tabs
Arrival Bass Tabs
Bye Bye Missy Tabs
Cross Of Baron Samedi Tabs
Insanity Tabs
Magic Tabs
Omens 1 Tabs
One Down Two To Go 1 Tabs
Salem Tabs
The Lake Tabs


Song lyrics



↑ Back to top | Tablatures and chords are parodies/interpretations of the original songs. You may use it for private study, scholarship, research or language learning purposes only
© 2014 AZChords.com Contact us | Privacy policy | DMCA | Add/correct tabs | Request tabs | Top 50 tabs