>
 >
The Exorcist

The Exorcist Guitar Tabs

King Diamond - The Exorcist chords, tabs, tablatures, lyrics

Guitar lessons | Add/correct | Request | Top 50 tabs Artists:  A B C D E F G H I J K L M N O P Q R S T U V W X Y Z 0-9

The Exorcist Guitar Tabs – King Diamond

CD, Sheet music, Poster

Do you like The Exorcist? Share with your friends now
TabsTabs v2
Music & Lyrics: La Rocque/Diamond

Version 1.1 - July 99


This is my first tab. But as time go's by I will send in some more,
can do...
Most of the song is correct, but there is a few riffs I am not to 
sure about. Enjoy...


Riff A
|-----------------------------------------|----------------------------|
|-----------------------------------------|----------------------------|
|-----------------------------------------|----------------------------|
|-------------------------------------7-9-|----------------------12-11-|
|---10---9v----------10---9v--10--7-9-----|---10---9v--------10--10-9--|
|-7----7----7v-----7----7-----------------|-7----7----7v-----8---------|


|-----------------------------------------|----------------------------|
|-----------------------------------------|----------------------------|
|-----------------------------------------|----------------------------|
|-------------------------------------7-9-|----------------------12-11-|
|---10---9v----------10---9v--10--7-9-----|---10---9v--------10--10-9--|
|-7----7----7v-----7----7-----------------|-7----7----7v-----8---------|


|-----------------------------------------|----------------------------|
|-----------------------------------------|----------------------------|
|-----------------------------------------|----------------------------|
|-------------------------------------7-9-|----------------------12-11-|
|---10---9v----------10---9v--10--7-9-----|---10---9v--------10--10-9--|
|-7----7----7v-----7----7-----------------|-7----7----7v-----8---------|


|-----------------------------------------|----------------------------|
|-----------------------------------------|----------------------------|
|-----------------------------------------|----------------------------|
|-------------------------------------7-9-|----------------------12-11-|
|---10---9v----------10---9v--10--7-9-----|---10---9v--------10--10-9--|
|-7----7----7v-----7----7-----------------|-7----7----7v-----8---------|

Fig.1a
|-----------------------------------------|--------------------------|
|-----------------------------------------|--------------------------|
|-----------------------------------------|--------------------------|
|-------------------------------------7-9-|--------------------------|
|---10---9v----------10---9v--10--7-9-----|---10---9v--------9--10-7-|
|-7----7----8v-----7----7-----------------|-7----7----8v-----7--8--5-|


|-----------------------------------------|--------------------------|
|-----------------------------------------|--------------------------|
|-----------------------------------------|--------------------------|
|-------------------------------------7-9-|--------------------------|
|---10---9v----------10---9v--10--7-9-----|---10---9v--------9--10-7-|
|-7----7----8v-----7----7-----------------|-7----7----8v-----7--8--5-|

Fig.1b
||----------------------------------------||------------------------|
||----------------------------------------||------------------------|
||---10---9v------------10---9v-----------||------------------------|
||--------------10-9----------------8v----||------10v--------9v-----|
||-7----7-------------7----7--------------||---10----------9--------|
||----------------------------------------||-8-----------7----------|

Riff A
|-----------------------------------------|----------------------------|
|-----------------------------------------|----------------------------|
|-----------------------------------------|----------------------------|
|-------------------------------------7-9-|----------------------12-11-|
|---10---9v----------10---9v--10--7-9-----|---10---9v--------10--10-9--|
|-7----7----7v-----7----7-----------------|-7----7----7v-----8---------|


|-----------------------------------------|----------------------------|
|-----------------------------------------|----------------------------|
|-----------------------------------------|----------------------------|
|-------------------------------------7-9-|----------------------12-11-|
|---10---9v----------10---9v--10--7-9-----|---10---9v--------10--10-9--|
|-7----7----7v-----7----7-----------------|-7----7----7v-----8---------|

Fig.1a
|-----------------------------------------|--------------------------|
|-----------------------------------------|--------------------------|
|-----------------------------------------|--------------------------|
|-------------------------------------7-9-|--------------------------|
|---10---9v----------10---9v--10--7-9-----|---10---9v--------9--10-7-|
|-7----7----8v-----7----7-----------------|-7----7----8v-----7--8--5-|


|-----------------------------------------|--------------------------|
|-----------------------------------------|--------------------------|
|-----------------------------------------|--------------------------|
|-------------------------------------7-9-|--------------------------|
|---10---9v----------10---9v--10--7-9-----|---10---9v--------9--10-7-|
|-7----7----8v-----7----7-----------------|-7----7----8v-----7--8--5-|

Fig.1b
||----------------------------------------||------------------------|
||----------------------------------------||------------------------|
||---10---9v------------10---9v-----------||------------------------|
||--------------10-9----------------8v----||------10v--------9v-----|
||-7----7-------------7----7--------------||---10----------9--------|
||----------------------------------------||-8-----------7----------|

Fig.2 (solo)
|----------------------------|--------------------------------|
|----------------------------|--------------------------------|
|----------------------------|--------------------------------|
|------9-7-------9-7-------2-|------9-7-------9-7-------------|
|-2----7-5--2----7-5--5--5-0-|-2----7-5--2----7-5-------------|
|-0-0-------0-0-------3--3---|-0-0-------0-0-------3-3-3-4-5v-|
    .         .       .          .         .       . .

|----------------------------|--------------------------------|
|----------------------------|--------------------------------|
|----------------------------|--------------------------------|
|------9-7-------9-7-------2-|------9-7-------9-7-------------|
|-2----7-5--2----7-5--5--5-0-|-2----7-5--2----7-5-------------|
|-0-0-------0-0-------3--3---|-0-0-------0-0-------3-3-3-4-5v-|
    .         .       .          .         .       . .
Fig.3
|-------------------------|-------------------------|
|-------------------------|-------------------------|
|-------------------------|-------------------------|
|-----------------------4-|-----------------------4-|
|-000000000-3-2-0-3-2-3---|-000000000-3-2-0-3-2-3---|
|-------------------------|-------------------------|
  .........                 .........     

|-------------------------|-------------------------|
|-------------------------|-------------------------|
|-------------------------|-------------------------|
|-----------------------4-|-----------------------4-|
|-----------3-2-0-3-2-3---|-----------3-2-0-3-2-3---|
|-111111111---------------|-111111111---------------|
  .........                 .........                                       
Fig.4
|------------------|------------------|------------------|------------------|
|------------------|------------------|------------------|------------------|
|------------------|------------------|------------------|------------------|
|------------------|------------------|------------------|------------------|
|-44-44-44-4---5-5-|-44-44-44-4---7-7-|-44-44-44-4---5-5-|-44-44-44-4---7-7-|
|-22-22-22-222-3-3-|-22-22-22-222-5-5-|-22-22-22-222-3-3-|-22-22-22-222-5-5-|
  .. .. .. ...       .. .. .. ...       .. .. .. ...       .. .. .. ...
Fig.5
|---------------|---------------|---------------|---------------|
|---------------|---------------|---------------|---------------|
|---------------|---------------|---------------|---------------|
|---------------|---------------|---------------|---------------|
|-4-4--4-4--5-5-|-4-4--4-4--7-7-|-4-4--4-4--5-5-|-4-4--4-4--7-7-|
|-2-2--2-2--3-3-|-2-2--2-2--5-5-|-2-2--2-2--3-3-|-2-2--2-2--5-5-|
  . .  . .  . .   . .  . .  . .   . .  . .  . .   . .  . .  .

Fig.6
|---------------------------------|---------------------------------|
|---------------------------------|---------------------------------|
|---------------------------------|---------------------------------|
|----9----------------------------|----9----------------------------|
|-------9-10--7--9------7---------|-------9-10--7--9------7---------|
|-7-----------------10-----9-10-6-|-7-----------------10-----9-10-6-|


|---------------------------------|---------------------------------|
|---------------------------------|---------------------------------|
|---------------------------------|---------------------------------|
|----9----------------------------|----9----------------------------|
|-------9-10--7--9------7---------|-------9-10--7--9------7---------|
|-7-----------------10-----9-10-6-|-7-----------------10-----9-10-6-|


Fig.1a (solo 2)
|-----------------------------------------|--------------------------|
|-----------------------------------------|--------------------------|
|-----------------------------------------|--------------------------|
|-------------------------------------7-9-|--------------------------|
|---10---9v----------10---9v--10--7-9-----|---10---9v--------9--10-7-|
|-7----7----8v-----7----7-----------------|-7----7----8v-----7--8--5-|


|-----------------------------------------|--------------------------|
|-----------------------------------------|--------------------------|
|-----------------------------------------|--------------------------|
|-------------------------------------7-9-|--------------------------|
|---10---9v----------10---9v--10--7-9-----|---10---9v--------9--10-7-|
|-7----7----8v-----7----7-----------------|-7----7----8v-----7--8--5-|

Fig.1b
||----------------------------------------||------------------------|
||----------------------------------------||------------------------|
||---10---9v------------10---9v-----------||------------------------|
||--------------10-9----------------8v----||------10v--------9v-----|
||-7----7-------------7----7--------------||---10----------9--------|
||----------------------------------------||-8-----------7----------|


Riff A
|-----------------------------------------|----------------------------|
|-----------------------------------------|----------------------------|
|-----------------------------------------|----------------------------|
|-------------------------------------7-9-|----------------------12-11-|
|---10---9v----------10---9v--10--7-9-----|---10---9v--------10--10-9--|
|-7----7----7v-----7----7-----------------|-7----7----7v-----8---------|


|-----------------------------------------|----------------------------|
|-----------------------------------------|----------------------------|
|-----------------------------------------|----------------------------|
|-------------------------------------7-9-|----------------------12-11-|
|---10---9v----------10---9v--10--7-9-----|---10---9v--------10--10-9--|
|-7----7----7v-----7----7-----------------|-7----7----7v-----8---------|

Fig.1a
|-----------------------------------------|--------------------------|
|-----------------------------------------|--------------------------|
|-----------------------------------------|--------------------------|
|-------------------------------------7-9-|--------------------------|
|---10---9v----------10---9v--10--7-9-----|---10---9v--------9--10-7-|
|-7----7----8v-----7----7-----------------|-7----7----8v-----7--8--5-|


|-----------------------------------------|--------------------------|
|-----------------------------------------|--------------------------|
|-----------------------------------------|--------------------------|
|-------------------------------------7-9-|--------------------------|
|---10---9v----------10---9v--10--7-9-----|---10---9v--------9--10-7-|
|-7----7----8v-----7----7-----------------|-7----7----8v-----7--8--5-|

Fig.1b
||----------------------------------------||------------------------|
||----------------------------------------||------------------------|
||---10---9v------------10---9v-----------||------------------------|
||--------------10-9----------------8v----||------10v--------9v-----|
||-7----7-------------7----7--------------||---10----------9--------|
||----------------------------------------||-8-----------7----------|

Fig.2 (solo 3)
|----------------------------|--------------------------------|
|----------------------------|--------------------------------|
|----------------------------|--------------------------------|
|------9-7-------9-7-------2-|------9-7-------9-7-------------|
|-2----7-5--2----7-5--5--5-0-|-2----7-5--2----7-5-------------|
|-0-0-------0-0-------3--3---|-0-0-------0-0-------3-3-3-4-5v-|
    .         .       .          .         .       . .

|----------------------------|--------------------------------|
|----------------------------|--------------------------------|
|----------------------------|--------------------------------|
|------9-7-------9-7-------2-|------9-7-------9-7-------------|
|-2----7-5--2----7-5--5--5-0-|-2----7-5--2----7-5-------------|
|-0-0-------0-0-------3--3---|-0-0-------0-0-------3-3-3-4-5v-|
    .         .       .          .         .       . .

Fig.6
|----------------------------------|----------------------------------|
|----------------------------------|----------------------------------|
|----------------------------------|----------------------------------|
|----9-----------------------------|----9-----------------------------|
|-------9-10--7--9------7--11-12-8-|-------9-10--7--9------7--11-12-8-|
|-7-----------------10-----9--10-6-|-7-----------------10-----9--10-6-|
                           .  .. .                            .  .. .
Fig.7
|--------------------------------------|
|--------------------------------------|
|--------------------------------------|
|----10--------------------------------|
|--------10-11--8--11-------8--12-13-9-|
|-8---------------------11-----10-11-7-|
                               .. .. .

|--------------------------------------|
|--------------------------------------|
|--------------------------------------|
|----10--------------------------------|
|--------10-11--8--11-------8--12-13-9-|
|-8---------------------11-----10-11-7-|
                               .. .. .

|--------------------------------------|
|--------------------------------------|
|--------------------------------------|
|----10--------------------------------|
|--------10-11--8--11-------8--12-13-9-|
|-8---------------------11-----10-11-7-|
                               .. .. .

|--------------------------------------|
|--------------------------------------|
|--------------------------------------|
|----10--------------------------------|
|--------10-11--8--11-------8----------|
|-8---------------------11-----10-11-7-|
                               
Fig.8
|--------------------------------------|
|--------------------------------------|
|--------------------------------------|
|----11--------------------------------|
|--------11-12--9--11-------9----------|
|-9---------------------12-----11-12-8-|
                               

|--------------------------------------|
|--------------------------------------|
|--------------------------------------|
|----11--------------------------------|
|--------11-12--9--11-------9----------|
|-9---------------------12-----11-12-8-|


|--------------------------------------|
|--------------------------------------|
|--------------------------------------|
|----11--------------------------------|
|--------11-12--9--11-------9----------|
|-9---------------------12-----11-12-8-|


|--------------------------------------|
|--------------------------------------|
|--------------------------------------|
|----11--------------------------------|
|--------11-12--9--11-------9----------|
|-9---------------------12-----11-12-8-|


Fade out...

The end





Comments


Popular King Diamond tabs & chords
Catacomb Bass Tabs
Cremation Bass Tabs
Midnight Bass Tabs
Voices From The Past Bass Tabs
Cold As Ice Tabs
Coming Home Tabs
Lucy Forever Tabs
Never Ending Hill Tabs
Omens Tabs
The Ritual 2 Tabs


Song lyrics



↑ Back to top | Tablatures and chords are parodies/interpretations of the original songs. You may use it for private study, scholarship, research or language learning purposes only
© 2014 AZChords.com Contact us | Privacy policy | DMCA | Add/correct tabs | Request tabs | Top 50 tabs