>
 >
Sleepless Night

Sleepless Night Bass Tabs

King Diamond - Sleepless Night chords, tabs, tablatures, lyrics

Guitar lessons | Add/correct | Request | Top 50 tabs Artists:  A B C D E F G H I J K L M N O P Q R S T U V W X Y Z 0-9

Sleepless Night Bass Tabs – King Diamond

CD, Sheet music, Poster

Do you like Sleepless Night? Share with your friends now
Bass Tabs
G||------------------|-----------------------|-----------------------|
D||------------------|-----------------------|-----------------------|
A||------------------|--2--------------------|-----------------------|
E||------------------|-------2----2----2--2--|--2----2----2----2--2--|


                                                                     
-----------------------|--------------------|-----------------------|
-----------------------|--2-----------------|-----------------------|
--2--------------------|-----------1--------|--2--------------------|
-------2----2----0--2--|--------------------|-------2----2----2--2--|


                                                                     
-----------------------|-----------------------|--------------------|
-----------------------|-----------------------|--------------------|
-----------------------|--2--------------------|--0-----------------|
--2----2----2----2--2--|-------2----2----0--2--|-----------0--------|


                                                                      
--------------------|--7~---------------|--------------17------------|
--0------------7----|-------------------|--12--14--15----------15----|
--------------------|-------------------|----------------------------|
--------------------|-------------------|----------------------------|


                                                                        
--------------x--12-----------|--------------------|--7~---------------|
--12--14--15---------15-------|--0------------7----|-------------------|
-------------------------0----|--------------------|-------------------|
------------------------------|--------------------|-------------------|


                                                                  
---------10----------|----------------------|--------------------|
--7------------------|--7------0------------|--0------------7----|
---------------------|----------------0--2--|--------------------|
---------------------|----------------------|--------------------|


                                                 
--7~---------------|--------------17------------|
-------------------|--12--14--15----------15----|
-------------------|----------------------------|
-------------------|----------------------------|


                                                         
--------------12--12-----------|------------------------|
--12--14--15----------15-------|------------------------|
--------------------------0----|--0----0----0----0-0-0--|
-------------------------------|------------------------|


                                                                       
------------------------|------------------------|--------------------|
------------------------|------------------------|--------------------|
--0----0----0----0-0----|--0----0----0----0-0-0--|--------------------|
---------------------3--|------------------------|--3--------4--------|


                                                                           
------------------------|------------------------|------------------------|
------------------------|------------------------|------------------------|
--0----0----0----0-0-0--|--0----0----0----0-0----|--0----0----0----0-0-0--|
------------------------|---------------------3--|------------------------|


                                                              
--------------------|---------------------|------------------|
--------------------|---------------------|------------------|
--3--------5--------|--4------2------0----|------------------|
--------------------|---------------------|------------------|


                                                               
---------------------|------------------|---------------------|
---------------------|------------------|---------------------|
--4------2------0----|------------------|--4------2-----------|
---------------------|------------------|----------------4----|


                                                                     
------------------|------------------------|------------------------|
------------------|------------------------|------------------------|
------------------|--0----0----0----0-0-0--|--0----0----0----0-0----|
------------------|------------------------|---------------------3--|


                                                                          
------------------------|-----------------------|------------------------|
---------------------3--|----2--0--2----0-------|------------------------|
--0----0----0--0--0-----|------------------3----|--0----0----0----0-0-0--|
------------------------|-----------------------|------------------------|


                                                                          
------------------------|------------------------|-----------------------|
------------------------|---------------------3--|----2--0--2----0-------|
--0----0----0----0-0----|--0----0----0--0--0-----|------------------3----|
---------------------3--|------------------------|-----------------------|


                                                               
--------------------|--7~---------------|---------10----------|
--0------------7----|-------------------|--7------------------|
--------------------|-------------------|---------------------|
--------------------|-------------------|---------------------|


                                                                
----------------------|--------------------|--7~---------------|
--7------0------------|--0------------7----|-------------------|
----------------0--2--|--------------------|-------------------|
----------------------|--------------------|-------------------|


                                                           
--------------17------------|--------------12-------------|
--12--14--15----------15----|--12--14--15--------15-------|
----------------------------|------------------------0----|
----------------------------|-----------------------------|


                                                                           
------------------------|------------------------|------------------------|
------------------------|------------------------|------------------------|
--0----0----0----0-0-0--|--0----0----0----0-0----|--0----0----0----0-0-0--|
------------------------|---------------------3--|------------------------|


                                                                       
--------------------|------------------------|------------------------|
--------------------|------------------------|------------------------|
--------------------|--0----0----0----0-0-0--|--0----0----0----0-0----|
--3--------4--------|------------------------|---------------------3--|


                                                                    
------------------------|--------------------|---------------------|
------------------------|--------------------|---------------------|
--0----0----0----0-0-0--|--3--------5--------|--4------2------0----|
------------------------|--------------------|---------------------|


                                                            
------------------|---------------------|------------------|
------------------|---------------------|------------------|
------------------|--4------2------0----|------------------|
------------------|---------------------|------------------|


                                                                 
---------------------|------------------|-----------------------|
---------------------|------------------|-----------------------|
--4------2-----------|------------------|--2--------------------|
----------------4----|------------------|-------2----2----2--2--|


                                                                     
-----------------------|-----------------------|--------------------|
-----------------------|-----------------------|--2-----------------|
-----------------------|--2--------------------|-----------1--------|
--2----2----2----2--2--|-------2----2----0--2--|--------------------|


                                                                        
-----------------------|-----------------------|-----------------------|
-----------------------|-----------------------|-----------------------|
--2--------------------|-----------------------|--2--------------------|
-------2----2----2--2--|--2----2----2----2--2--|-------2----2----0--2--|


                                                                       
--------------------|------------------------|------------------------|
--------------------|------------------------|------------------------|
--0-----------------|------------------------|------------------------|
-----------0--------|--4----4--4--4--5--5----|--4----4--4--4--7--5----|


                                                                            
------------------------|-------------------------|------------------------|
------------------------|-------------------------|------------------------|
------------------------|--7--6--4-----4----------|------------------------|
--4----4--4--4--5--5----|-----------7-----7--5----|--4----4--4--4--5--5----|


                                                                         
------------------------|------------------------|----------------------|
------------------------|------------------------|----------------------|
------------------------|------------------------|--4--2------7--6------|
--4----4--4--4--7--5----|--4----4--4--4--5--5----|----------------------|


                                                               
---------------------|------------------|---------------------|
---------------------|------------------|---------------------|
--4------2------0----|------------------|--4------2------0----|
---------------------|------------------|---------------------|


                                                            
------------------|---------------------|------------------|
------------------|---------------------|------------------|
------------------|--4------2-----------|------------------|
------------------|----------------4----|------------------|


                                                                           
------------------------|------------------------|------------------------|
------------------------|------------------------|---------------------3--|
--0----0----0----0-0-0--|--0----0----0----0-0----|--0----0----0--0--0-----|
------------------------|---------------------3--|------------------------|


                                                                          
-----------------------|------------------------|------------------------|
----2--0--2----0-------|------------------------|------------------------|
------------------3----|--0----0----0----0-0-0--|--0----0----0----0-0----|
-----------------------|------------------------|---------------------3--|


                                                                         
------------------------|-----------------------|-----------------------|
---------------------3--|----2--0--2----0-------|-----------------------|
--0----0----0--0--0-----|------------------3----|----------------3-2----|
------------------------|-----------------------|--1------1----------1--|


                                                                    
----------------------|-----------------------|--------------------|
----------------------|-----------------------|--------------------|
--2------2------3--2--|----------------3-2----|--------------------|
----------------------|--1------1----------1--|--3--------3--------|


                                                                        
-------------------------|--------------------|------------------------|
-------------------------|--------------------|------------------------|
----------------3--2-----|--2-----------------|--0----0----0----0-0-0--|
--1------1------------1--|-----------0--------|------------------------|


                                                                          
------------------------|------------------------|-----------------------|
------------------------|---------------------3--|----2--0--2----0-------|
--0----0----0----0-0----|--0----0----0--0--0-----|------------------3----|
---------------------3--|------------------------|-----------------------|


                                                                           
------------------------|------------------------|------------------------|
------------------------|------------------------|---------------------3--|
--0----0----0----0-0-0--|--0----0----0----0-0----|--0----0----0--0--0-----|
------------------------|---------------------3--|------------------------|


                                                   
-----------------------|--------------------------|
----2--0--2----0-------|--------------------------|
------------------3----|--1--1--1--1--1--1--1--1--|
-----------------------|--------------------------|


                                                                       
-----------------------------|--------------------|--7~---------------|
-----------------------------|--0------------7----|-------------------|
--3--3--3--3--3--3--3--------|--------------------|-------------------|
-----------------------------|--------------------|-------------------|


                                                                  
---------10----------|----------------------|--------------------|
--7------------------|--7------0------------|--0------------7----|
---------------------|----------------0--2--|--------------------|
---------------------|----------------------|--------------------|


                                                                                
--7~---------------|--------------17------------|--------------12--0-----------|
-------------------|--12--14--15----------15----|--12--14--15---------15-------|
-------------------|----------------------------|-------------------------0----|
-------------------|----------------------------|------------------------------|


                                                                 
-----------------------|---------------------|------------------|
-----------------------|---------------------|------------------|
-----------------------|---------------------|------------------|
--0----0----0--0--0----|--3----2----0--------|------------------|


                                                                  
-----------------------|----------------------|------------------|
-----------------------|----------------------|------------------|
-----------------------|-----------------2----|------------------|
--0----0----0--0--0----|--3----2----0---------|------------------|


                                                                 
-----------------------|---------------------|------------------|
-----------------------|---------------------|------------------|
-----------------------|---------------------|------------------|
--0----0----0--0--0----|--3----2----0--------|------------------|


                                                                     
-----------------------|-------------12----11----|------------------|
-----------------------|-------------------------|------------------|
-----------------------|--10----9----------------|------------------|
--0----0----0--0--0----|-------------------------|------------------|


                                                                    
---------------------|-----------------------|---------------------|
---------------------|-----------------------|---------------------|
--7--------7------5--|--7----7----7--9--9----|--5--------5------2--|
---------------------|-----------------------|---------------------|


                                                                          
------------------------|------------------------|---------------7--7----|
------------------------|---------------------7--|--9----9----9----------|
--2--5--5----2--2--5----|--7--------7--9--10-----|-----------------------|
------------------------|------------------------|-----------------------|


                                                                      
--7-------------------|------------------------|---------------------|
-------7--------------|------------------------|---------------------|
------------9------2--|--2--5--5----2--2--5----|--7--------7------5--|
----------------------|------------------------|---------------------|


                                                                        
-----------------------|---------------------|-------------------------|
-----------------------|---------------------|--------2--4--5--4-------|
--7----7----7--9--9----|--5--------5------2--|--2--5--------------5----|
-----------------------|---------------------|-------------------------|


                                                                       
------------------------|--------------------|------------------------|
------------------------|--------------------|------------------------|
--1--1--1--1------1--1--|--1--1--------------|--0----0----0----0-0-0--|
------------------------|--------------------|------------------------|


                                                                       
------------------------|------------------------|--------------------|
------------------------|------------------------|--------------------|
--0----0----0----0-0----|--0----0----0----0-0-0--|--------------------|
---------------------3--|------------------------|--3--------4--------|


                                                                           
------------------------|------------------------|------------------------|
------------------------|------------------------|------------------------|
--0----0----0----0-0-0--|--0----0----0----0-0----|--0----0----0----0-0-0--|
------------------------|---------------------3--|------------------------|


                                                              
--------------------|--------------------|--7~---------------|
--------------------|--0------------7----|-------------------|
--3--------5--------|--------------------|-------------------|
--------------------|--------------------|-------------------|


                                                                  
---------10----------|----------------------|--------------------|
--7------------------|--7------0------------|--0------------7----|
---------------------|----------------0--2--|--------------------|
---------------------|----------------------|--------------------|


                                                 
--7~---------------|--------------17------------|
-------------------|--12--14--15----------15----|
-------------------|----------------------------|
-------------------|----------------------------|


                                                                         
--------------12--12-----------|--------------------|--7~---------------|
--12--14--15----------15-------|--0------------7----|-------------------|
--------------------------0----|--------------------|-------------------|
-------------------------------|--------------------|-------------------|


                                                                  
---------10----------|----------------------|--------------------|
--7------------------|--7------0------------|--0------------7----|
---------------------|----------------0--2--|--------------------|
---------------------|----------------------|--------------------|


                                                 
--7~---------------|--------------17------------|
-------------------|--12--14--15----------15----|
-------------------|----------------------------|
-------------------|----------------------------|


                                                                         
--------------12--12-----------|--------------------|--7~---------------|
--12--14--15----------15-------|--0------------7----|-------------------|
--------------------------0----|--------------------|-------------------|
-------------------------------|--------------------|-------------------|


                                                                  
---------10----------|----------------------|--------------------|
--7------------------|--7------0------------|--0------------7----|
---------------------|----------------0--2--|--------------------|
---------------------|----------------------|--------------------|


                                                 
--7~---------------|--------------17------------|
-------------------|--12--14--15----------15----|
-------------------|----------------------------|
-------------------|----------------------------|


                                                    
--------------12--12-----------|------------------||
--12--14--15----------15-------|------------------||
--------------------------0----|------------------||
-------------------------------|------------------||





Comments


Popular King Diamond tabs & chords
Cremation Bass Tabs
At The Graves 1 Tabs
Cold As Ice Tabs
Halloween Tabs
Halloween 1 Tabs
Shapes Of Black Tabs
The Family Ghost Tabs
The Spider's Lullabye 1 Tabs
The Uninvited Guest Tabs
Waiting Tabs


Song lyrics



↑ Back to top | Tablatures and chords are parodies/interpretations of the original songs. You may use it for private study, scholarship, research or language learning purposes only
© 2014 AZChords.com Contact us | Privacy policy | DMCA | Add/correct tabs | Request tabs | Top 50 tabs