» » »

King Diamond, Sarah's Night Bass tabs (ver.1)

Artists:  A B C D E F G H I J K L M N O P Q R S T U V W X Y Z # 

Sarah's Night Bass tabs (ver.1)

King Diamond Tabs
 Rating:
4/5 (4 votes)
Sarah's Night lessons Tabs too difficult? Try these video lessons and learn fast
                its a 4 string bass

E||------------------|------------------|------------------|------------------|
B||------------------|------------------|------------------|------------------|
G||------------------|------------------|------------------|------------------|
D||------------------|------------------|------------------|------------------|
A||------------------|------------------|------------------|------------------|
E||------------------|------------------|------------------|------------------|
                                                                           

                                                                                
------------------|------------------|------------------|----------------------|
------------------|------------------|------------------|----------------------|
------------------|------------------|------------------|----------------------|
------------------|------------------|------------------|----------------------|
------------------|------------------|------------------|--1----1----1----1----|
------------------|------------------|------------------|----------------------|


                                                                     
---------------------|----------------------|-----------------------|
---------------------|----------------------|-----------------------|
---------------------|----------------------|-----------------------|
---------------------|----------------------|-----------------------|
--4----4----4--------|--1----1----1----1----|-----------------------|
---------------------|----------------------|--1--1--1----1----1----|


                                                                    
----------------------|---------------------|----------------------|
----------------------|---------------------|----------------------|
----------------------|---------------------|----------------------|
----------------------|---------------------|----------------------|
--1----1----1----1----|--4----4----4--------|----------------------|
----------------------|---------------------|--4----4----4----4----|


                                                                       
-----------------------|----------------------|-----------------------|
-----------------------|----------------------|-----------------------|
-----------------------|----------------------|-----------------------|
-----------------------|----------------------|-----------------------|
-----------------------|--0----0----0----0----|--0--0--0----0----0----|
--4--4--4----4----4----|----------------------|-----------------------|


                                                                      
----------------------|-----------------------|----------------------|
----------------------|-----------------------|----------------------|
----------------------|-----------------------|----------------------|
----------------------|-----------------------|----------------------|
----------------------|-----------------------|--0----0----0----0----|
--4----4----4----4----|--4--4--4----4----4----|----------------------|


                                                               
-----------------------|-------------------|------------------|
-----------------------|-------------------|------------------|
-----------------------|-------------------|------------------|
-----------------------|-------------------|------------------|
--0--0--0----0----0----|-------------------|------------------|
-----------------------|--4----------------|------------------|


                                                                            
------------------|------------------|------------------|------------------|
------------------|------------------|------------------|------------------|
------------------|------------------|------------------|------------------|
------------------|------------------|------------------|------------------|
------------------|------------------|------------------|------------------|
------------------|------------------|------------------|------------------|


                                                                            
------------------|------------------|------------------|------------------|
------------------|------------------|------------------|------------------|
------------------|------------------|------------------|------------------|
------------------|------------------|------------------|------------------|
------------------|------------------|------------------|------------------|
------------------|------------------|------------------|------------------|


                                                                            
------------------|------------------|------------------|------------------|
------------------|------------------|------------------|------------------|
------------------|------------------|------------------|------------------|
------------------|------------------|------------------|------------------|
------------------|------------------|------------------|------------------|
------------------|------------------|------------------|------------------|


                                                             
------------------|------------------|----------------------|
------------------|------------------|----------------------|
------------------|------------------|----------------------|
------------------|------------------|----------------------|
------------------|------------------|--1----1----1----1----|
------------------|------------------|----------------------|


                                                                      
----------------------|----------------------|-----------------------|
----------------------|----------------------|-----------------------|
----------------------|----------------------|-----------------------|
----------------------|----------------------|--7--7--6----7----6----|
--4----4----4----4----|--1----1----1----1----|-----------------------|
----------------------|----------------------|-----------------------|


                                                                     
----------------------|----------------------|----------------------|
----------------------|----------------------|----------------------|
----------------------|----------------------|----------------------|
----------------------|----------------------|----------------------|
--1----1----1----1----|----------------------|----------------------|
----------------------|--2----2----2----2----|--4----4----4----4----|


                                                                       
-----------------------|----------------------|-----------------------|
-----------------------|----------------------|-----------------------|
-----------------------|----------------------|-----------------------|
-----------------------|----------------------|-----------------------|
-----------------------|--0----0----0----0----|--0--0--0----0----0----|
--4--4--4----4----4----|----------------------|-----------------------|


                                                                      
----------------------|-----------------------|----------------------|
----------------------|-----------------------|----------------------|
----------------------|-----------------------|----------------------|
----------------------|-----------------------|----------------------|
----------------------|-----------------------|--0----0----0----0----|
--4----4----4----4----|--4--4--4----4----4----|----------------------|


                                                                      
-----------------------|----------------------|----------------------|
-----------------------|----------------------|----------------------|
-----------------------|----------------------|----------------------|
-----------------------|----------------------|----------------------|
--0--0--0----0----0----|--1----1----1----1----|--4----4----4----4----|
-----------------------|----------------------|----------------------|


                                                                      
----------------------|-----------------------|----------------------|
----------------------|-----------------------|----------------------|
----------------------|-----------------------|----------------------|
----------------------|--7--7--6----7----6----|----------------------|
--1----1----1----1----|-----------------------|--1----1----1----1----|
----------------------|-----------------------|----------------------|


                                                                      
----------------------|----------------------|-----------------------|
----------------------|----------------------|-----------------------|
----------------------|----------------------|-----------------------|
----------------------|----------------------|-----------------------|
--4----4----4----4----|----------------------|-----------------------|
----------------------|--4----4----4----4----|--4--4--4----4----4----|


                                                                      
----------------------|-----------------------|----------------------|
----------------------|-----------------------|----------------------|
----------------------|-----------------------|----------------------|
----------------------|-----------------------|----------------------|
--0----0----0----0----|--0--0--0----0----0----|----------------------|
----------------------|-----------------------|--4----4----4----4----|


                                                                       
-----------------------|----------------------|-----------------------|
-----------------------|----------------------|-----------------------|
-----------------------|----------------------|-----------------------|
-----------------------|----------------------|-----------------------|
-----------------------|--0----0----0----0----|--0--0--0----0----0----|
--4--4--4----4----4----|----------------------|-----------------------|


                                                                             
-------------------|------------------|------------------|------------------|
-------------------|------------------|------------------|------------------|
-------------------|------------------|------------------|------------------|
-------------------|------------------|------------------|------------------|
-------------------|------------------|------------------|------------------|
--4----------------|------------------|------------------|------------------|
            
Submit corrections

comments powered by Disqus
↑ Back to top | King Diamond Bass for Sarah's Night. Lyrics for acoustic guitar and electric guitar. Tablatures and chords are parodies/interpretations of the original songs. You may use it for private study, scholarship, research or language learning purposes only