>
 >
Miriam

Miriam Bass Tabs

King Diamond - Miriam chords, tabs, tablatures, lyrics

Guitar lessons | Add/correct | Request | Top 50 tabs Artists:  A B C D E F G H I J K L M N O P Q R S T U V W X Y Z 0-9

Miriam Bass Tabs – King Diamond

CD, Sheet music, Poster

Do you like Miriam? Share with your friends now
Bass TabsTabs
G||------------------|------------------|--------------------------|
D||------------------|------------------|--------------------------|
A||------------------|------------------|--2--2--2--2--2--2--3--2--|
E||------------------|------------------|--------------------------|


                                                                           
--------------------------|--------------------------|--------------------|
--------------------------|--------------------------|--------------------|
--2--2--2--2--2--2--3--2--|--2--2--2--2--2--2--3--2--|--0--------------0--|
--------------------------|--------------------------|--------------------|


                                                      
--------------------------|--------------------------|
--------------------------|--------------------------|
--2--2--2--2--2--2--3--2--|--2--2--2--2--2--2--3--2--|
--------------------------|--------------------------|


                                                                           
--------------------------|--------------------|--------------------------|
--------------------------|--------------------|--------------------------|
--2--2--2--2--2--2--3--2--|--0--------------0--|--2--2--2--2--2--2--3--2--|
--------------------------|--------------------|--------------------------|


                                                                            
--------------------------|--------------------------|---------------------|
--------------------------|--------------------------|---------------------|
--2--2--2--2--2--2--3--2--|--2--2--2--2--2--2--2--2--|--7------5------3----|
--------------------------|--------------------------|---------------------|


                                                      
--------------------------|--------------------------|
--------------------------|--------------------------|
--2--2--2--2--2--2--3--2--|--2--2--2--2--2--2--3--2--|
--------------------------|--------------------------|


                                                                            
--------------------------|---------------------|--------------------------|
--------------------------|---------------------|--------------------------|
--2--2--2--2--2--2--2--2--|--7------5------3----|--------------------------|
--------------------------|---------------------|--0--0--0--0--0--0--0--0--|


                                                                          
--------------------------|-----------------------|----------------------|
--------------------------|-----------------------|----------------------|
--------------------------|-----------------------|----------------------|
--0--0--0--0--0--0--0--0--|--1--1----0----1----0--|--1--1----0----1------|


                                                                              
--------------------------|--------------------------|-----------------------|
--------------------------|--------------------------|-----------------------|
--------------------------|--------------------------|-----------------------|
--0--0--0--0--0--0--0--0--|--0--0--0--0--0--0--0--0--|--1--1----0----1----0--|


                                                                 
-----------------------|-------------------|--------------------|
-----------------------|-------------------|--------------------|
-----------------------|-------------------|----------7--5------|
--1--1----0----1----0--|--0----------------|--------------------|


                                                            
-------------------|-------------------|-------------------|
-------------------|-------------------|-------------------|
--2----------------|--2----------------|--2----------------|
-------------------|-------------------|-------------------|


                                                               
--------------------|-------------------|---------------------|
--2-----------------|--0----------------|--7--8--7------------|
-----------3--------|-------------------|---------------------|
--------------------|-------------------|---------------------|


                                                                      
--------------------|---------------------|--------------------------|
--6-----------------|--5------4-----------|--------------------------|
-------------7------|----------------5----|--2--2--2--2--2--2--3--2--|
--------------------|---------------------|--------------------------|


                                                                           
--------------------------|--------------------------|--------------------|
--------------------------|--------------------------|--------------------|
--2--2--2--2--2--2--3--2--|--2--2--2--2--2--2--3--2--|--0--------------0--|
--------------------------|--------------------------|--------------------|


                                                      
--------------------------|--------------------------|
--------------------------|--------------------------|
--2--2--2--2--2--2--3--2--|--2--2--2--2--2--2--3--2--|
--------------------------|--------------------------|


                                                                            
--------------------------|---------------------|--------------------------|
--------------------------|---------------------|--------------------------|
--2--2--2--2--2--2--2--2--|--7------5------3----|--2--2--2--2--2--2--3--2--|
--------------------------|---------------------|--------------------------|


                                                                            
--------------------------|--------------------------|---------------------|
--------------------------|--------------------------|---------------------|
--2--2--2--2--2--2--3--2--|--2--2--2--2--2--2--2--2--|--7------5------3----|
--------------------------|--------------------------|---------------------|


                                                                              
--------------------------|--------------------------|-----------------------|
--------------------------|--------------------------|-----------------------|
--------------------------|--------------------------|-----------------------|
--0--0--0--0--0--0--0--0--|--0--0--0--0--0--0--0--0--|--1--1----0----1----0--|


                                                                             
----------------------|--------------------------|--------------------------|
----------------------|--------------------------|--------------------------|
----------------------|--------------------------|--------------------------|
--1--1----0----1------|--0--0--0--0--0--0--0--0--|--0--0--0--0--0--0--0--0--|


                                                                    
-----------------------|-----------------------|-------------------|
-----------------------|-----------------------|-------------------|
-----------------------|-----------------------|-------------------|
--1--1----0----1----0--|--1--1----0----1----0--|--0----------------|


                                                             
--------------------|-------------------|-------------------|
--------------------|-------------------|-------------------|
----------7--5------|--2----------------|--2----------------|
--------------------|-------------------|-------------------|


                                                             
-------------------|--------------------|-------------------|
-------------------|--2-----------------|--0----------------|
--2----------------|-----------3--------|-------------------|
-------------------|--------------------|-------------------|


                                                                 
---------------------|--------------------|---------------------|
--7--8--7------------|--6-----------------|--5------4-----------|
---------------------|-------------7------|----------------5----|
---------------------|--------------------|---------------------|


                                                                             
-------------------|------------------|------------------|------------------|
-------------------|------------------|------------------|------------------|
--2----------------|------------------|------------------|------------------|
-------------------|------------------|------------------|------------------|


                                                               
------------------|------------------|------------------------|
------------------|------------------|------------------------|
------------------|------------------|--4--4----4--7--7----7--|
------------------|------------------|------------------------|


                                                                          
-----------------------|------------------------|------------------------|
-----------------------|------------------------|------------------------|
--9--9----9--5----4----|--4--4----4--7--7----7--|--9--9----9--5--4--5----|
-----------------------|------------------------|------------------------|


                                                                          
------------------------|-----------------------|------------------------|
------------------------|-----------------------|------------------------|
--4--4----4--7--7----7--|--9--9----9--5----4----|--4--4----4--7--7----7--|
------------------------|-----------------------|------------------------|


                                                                            
------------------------|------------------------|-------------------------|
------------------------|------------------------|-------------------------|
--9--9----9--5--4--5----|------------------------|--4--4----4--7--9--7--6--|
------------------------|--4--4----4--7--7----7--|-------------------------|


                                                                            
------------------------|-------------------------|------------------------|
------------------------|-------------------------|------------------------|
------------------------|--4--4----4--7--9--7--6--|------------------------|
--4--4----4--7--7----7--|-------------------------|--4--4----4--7--7----7--|


                                                                           
-------------------------|------------------------|-----------------------|
-------------------------|------------------------|-----------------------|
--4--4----4--7--9--7--6--|------------------------|--4--4----4--7----6----|
-------------------------|--4--4----4--7--7----7--|-----------------------|


                                                               
--------------------|--------------------|--------------------|
--------------------|--------------------|--------------------|
--7------------7----|----------5----4----|--7------------7----|
--------------------|--------------------|--------------------|


                                                                      
--------------------|------------------------|-----------------------|
--------------------|------------------------|-----------------------|
--------------------|--4--4----4--7--7----7--|--9--9----9--5----4----|
----------7----6----|------------------------|-----------------------|


                                                                           
------------------------|------------------------|------------------------|
------------------------|------------------------|------------------------|
--4--4----4--7--7----7--|--9--9----9--5--4--5----|------------------------|
------------------------|------------------------|--4--4----4--7--7----7--|


                                                                           
-------------------------|------------------------|-----------------------|
-------------------------|------------------------|-----------------------|
--4--4----4--7--9--7--6--|------------------------|--4--4----4--7----6----|
-------------------------|--4--4----4--7--7----7--|-----------------------|


                                                                               
--------------------------|------------------------|--------------------------|
--------------------------|------------------------|--------------------------|
-----------1--------------|-----1--------7----6----|-----------1--------------|
--0--2--3-----3--2--0--2--|--3-----3--2------------|--0--2--3-----3--2--0--2--|


                                                                            
------------------------|------------------------|-------------------------|
------------------------|------------------------|-------------------------|
-----1--------5----4----|------------------------|--4--4----4--7--9--7--6--|
--3-----3--2------------|--4--4----4--7--7----7--|-------------------------|


                                                                            
------------------------|-----------------------|--------------------------|
------------------------|-----------------------|--------------------------|
------------------------|--4--4----4--7----6----|-----------1--------------|
--4--4----4--7--7----7--|-----------------------|--0--2--3-----3--2--0--2--|


                                                                             
------------------------|--------------------------|------------------------|
------------------------|--------------------------|------------------------|
-----1--------7----6----|-----------1--------------|-----1--------5----4----|
--3-----3--2------------|--0--2--3-----3--2--0--2--|--3-----3--2------------|


                                                                     
------------------------|------------------|------------------------|
------------------------|------------------|------------------------|
--9--9----7--7----5--5--|------------------|--5--5----7--7----9--9--|
------------------------|------------------|------------------------|


                                                                     
------------------------|------------------------|------------------|
------------------------|------------------------|------------------|
------------------------|--9--9----7--7----5--5--|------------------|
------2--2--2--2--2--2--|------------------------|------------------|


                                                              
--------------------|--------------------|-------------------|
--------------------|--------------------|-------------------|
--5--5--------------|--7--7--------------|--9----------------|
--------------------|--------------------|-------------------|


                                                   
------------------|-------------------------------|
------------------|-------------------------------|
------------------|--7----------------------------|
------------------|-------7----0--------0----2----|


                                                            
------------------------------|----------------------------|
------------------------------|----------------------------|
------------------------------|--5------------5------------|
--4------------4----5----7----|----------------------------|


                                                                     
------------------------------------|-------------------------------|
------------------------------------|-------------------------------|
--3--3----3--3--3--5--5----5--5--5--|--7----------------------------|
------------------------------------|-------7----0--------0----2----|


                                                             
------------------------------|-----------------------------|
------------------------------|-----------------------------|
------------------------------|--5--------5----5------------|
--4------------4----5----7----|-----------------------------|


                                                                     
------------------------------------|-------------------------------|
------------------------------------|-------------------------------|
--3--3----3--3--3--5--5----5--5--5--|--7----------------------------|
------------------------------------|-------7----0--------0----2----|


                                                            
------------------------------|----------------------------|
------------------------------|----------------------------|
------------------------------|--5------------5------------|
--4------------4----5----7----|----------------------------|


                                                                            
------------------------------------|-------------------|------------------|
------------------------------------|-------------------|------------------|
--3--3----3--3--3--5--5----5--5--5--|--7----------------|------------------|
------------------------------------|-------------------|------------------|


                                                                             
------------------------|------------------------|--------------------------|
------------------------|------------------------|--------------------------|
--2--2--2--2--2--2------|--2--2--2--2--2--2------|--2--2--2--2--2--2--3--2--|
------------------------|------------------------|--------------------------|


                                                                           
--------------------|--------------------------|--------------------------|
--------------------|--------------------------|--------------------------|
--0--------------0--|--2--2--2--2--2--2--3--2--|--2--2--2--2--2--2--3--2--|
--------------------|--------------------------|--------------------------|


                                                                           
--------------------------|--------------------|--------------------------|
--------------------------|--------------------|--------------------------|
--2--2--2--2--2--2--3--2--|--0--------------0--|--2--2--2--2--2--2--3--2--|
--------------------------|--------------------|--------------------------|


                                                                            
--------------------------|--------------------------|---------------------|
--------------------------|--------------------------|---------------------|
--2--2--2--2--2--2--3--2--|--2--2--2--2--2--2--2--2--|--7------5------3----|
--------------------------|--------------------------|---------------------|


                                                      
--------------------------|--------------------------|
--------------------------|--------------------------|
--2--2--2--2--2--2--3--2--|--2--2--2--2--2--2--3--2--|
--------------------------|--------------------------|


                                                                            
--------------------------|---------------------|--------------------------|
--------------------------|---------------------|--------------------------|
--2--2--2--2--2--2--2--2--|--7------5------3----|--------------------------|
--------------------------|---------------------|--0--0--0--0--0--0--0--0--|


                                                                          
--------------------------|-----------------------|----------------------|
--------------------------|-----------------------|----------------------|
--------------------------|-----------------------|----------------------|
--0--0--0--0--0--0--0--0--|--1--1----0----1----0--|--1--1----0----1------|


                                                                              
--------------------------|--------------------------|-----------------------|
--------------------------|--------------------------|-----------------------|
--------------------------|--------------------------|-----------------------|
--0--0--0--0--0--0--0--0--|--0--0--0--0--0--0--0--0--|--1--1----0----1----0--|


                                                                 
-----------------------|-------------------|--------------------|
-----------------------|-------------------|--------------------|
-----------------------|-------------------|----------7--5------|
--1--1----0----1----0--|--0----------------|--------------------|


                                                            
-------------------|-------------------|-------------------|
-------------------|-------------------|-------------------|
-------------------|-------------------|-------------------|
--7----------------|--7----------------|--7----------------|


                                                               
--------------------|-------------------|---------------------|
--2-----------------|-------------------|--7--8--7------------|
-----------3--------|--5----------------|---------------------|
--------------------|-------------------|---------------------|


                                                              
--------------------|---------------------|------------------|
--6-----------------|--5------4-----------|------------------|
-------------7------|----------------5----|------------------|
--------------------|---------------------|------------------|


                                                                            
------------------|------------------|------------------|------------------|
------------------|------------------|------------------|------------------|
------------------|------------------|------------------|------------------|
------------------|------------------|------------------|------------------|


                                                                    
------------------|------------------------|-----------------------|
------------------|------------------------|-----------------------|
------------------|--4--4----4--7--7----7--|--9--9----9--5----4----|
------------------|------------------------|-----------------------|


                                                                           
------------------------|------------------------|------------------------|
------------------------|------------------------|------------------------|
--4--4----4--7--7----7--|--9--9----9--5--4--5----|------------------------|
------------------------|------------------------|--4--4----4--7--7----7--|


                                                                           
-------------------------|------------------------|-----------------------|
-------------------------|------------------------|-----------------------|
-------------7--9--7--6--|------------------------|-------------7----6----|
--9--9----9--------------|--4--4----4--7--7----7--|--9--9----9------------|


                                                                               
--------------------------|------------------------|--------------------------|
--------------------------|------------------------|--------------------------|
-----------1--------------|-----1--------7----6----|-----------1--------------|
--0--2--3-----3--2--0--2--|--3-----3--2------------|--0--2--3-----3--2--0--2--|


                                                                            
------------------------|------------------------|-------------------------|
------------------------|------------------------|-------------------------|
-----1--------5----4----|------------------------|--4--4----4--7--9--7--6--|
--3-----3--2------------|--4--4----4--7--7----7--|-------------------------|


                                                                      
------------------------|-----------------------|--------------------|
------------------------|-----------------------|--------------------|
------------------------|-------------7----6----|--7------------7----|
--4--4----4--7--7----7--|--9--9----9------------|--------------------|


                                                                
--------------------|--------------------|--------------------||
--------------------|--------------------|--------------------||
----------5----4----|--7------------7----|--------------------||
--------------------|--------------------|----------7----6----||





Comments


Popular King Diamond tabs & chords
Catacomb Bass Tabs
''LOA'' House Tabs
Father Picard Tabs
Follow The Wolf Tabs
Halloween Tabs
House Of God Tabs
Killer 2 Tabs
Mansion In Sorrow 1 Tabs
Moving On Tabs
The Cellar Tabs


Song lyrics



↑ Back to top | Tablatures and chords are parodies/interpretations of the original songs. You may use it for private study, scholarship, research or language learning purposes only
© 2014 AZChords.com Contact us | Privacy policy | DMCA | Add/correct tabs | Request tabs | Top 50 tabs