» » »

King Diamond, Insanity Bass tabs (ver.1)

Artists:  A B C D E F G H I J K L M N O P Q R S T U V W X Y Z # 

Insanity Bass tabs (ver.1)

King Diamond Tabs
 Rating:
4/5 (4 votes)
Insanity lessons Tabs too difficult? Try these video lessons and learn fast
1
                G||------|------|------|------|------|------|------|------|------|------|------|
D||------|------|------|------|------|------|------|------|------|------|------|
A||------|------|------|------|------|------|------|------|------|------|------|
E||------|------|------|------|------|------|------|------|------|------|------|


                                                        
                                                                     
------|---------------|---------------|---------------|-------------|
------|---------------|---------------|---------------|-------------|
------|--7------------|--6------------|--5------------|--4----2--5--|
------|---------------|---------------|---------------|-------------|


                                                              
---------------|---------------|---------------|-------------|
---------------|---------------|---------------|-------------|
--7------------|--6------------|--5------------|--4----2--5--|
---------------|---------------|---------------|-------------|


                                                                               
-------------------|------------------|-------------------|-------------------|
-------------------|------------------|-------------------|-------------------|
-------------------|------------------|--------------7----|--7----------------|
--0----------------|------------------|-------------------|-------------------|


                                                                 
--------------------|----------------------|--------------------|
--------------------|----------------------|--------------------|
--7------------7----|----------------------|------8--------7----|
--------------------|------12--------10----|--------------------|


                                                                
-------------------|---------------------|---------------------|
-------------------|---------------------|---------------------|
--7----------------|--5------7------9----|--4------5-----------|
-------------------|---------------------|----------------5----|


                                                                         
---------------------|------|---------------------|---------------------|
------------9~-------|------|---------4-----------|---------------------|
---------------------|------|--5-------------5----|--4------5-----------|
--5/-7---------------|------|---------------------|----------------5----|


                                                                          
----------------------|------|---------------------|---------------------|
----------------------|------|---------------------|---------------------|
----------------------|------|--5------7------9----|--4------5-----------|
--5/-7------5/-7------|------|---------------------|----------------5----|


                                                                      
--------------------|------|--------------------|--------------------|
--------------------|------|--------------------|--------------------|
--------------------|------|--------------------|--7~----------------|
--5/-7--------------|------|--0------------3----|---------------7----|


                                                              
-------------------|--------------------|--------------------|
-------------------|--------------------|--------------------|
-------------------|--------------------|--------------------|
--5----------------|----0--------0------|--0------------3----|


                                                                
---------------------|--------------------|--------------------|
---------------------|--------------------|--------------------|
--7------7------7----|--------------------|--------------------|
---------------------|--0--0--------------|----0--------0------|


                                                               
---------------------|-------------------|--------------------|
---------------------|-------------------|--------------------|
---------------------|-------------------|--------------------|
--0--0------------0--|--0----------------|--0--0--------------|


                                                               
--------------------|---------------------|-------------------|
--------------------|---------------------|-------------------|
--------------------|---------------------|-------------------|
----0--------0------|--0--0------------0--|--0----------------|


                                                                
--------------------|----------------------|-------------------|
--------------------|----------------------|-------------------|
--------------------|----------------------|--5----------------|
--0--0--------------|----0--0----0--0------|-------------------|


                                                                                
-------------------|-------------------|-------------------|-------------------|
-------------------|-------------------|-------------------|-------------------|
--4----------------|--2----------------|--2----------------|--5----------------|
-------------------|-------------------|-------------------|-------------------|


                                                                                
-------------------|-------------------|-------------------|-------------------|
-------------------|-------------------|-------------------|-------------------|
--4----------------|--2----------------|--2----------------|--5----------------|
-------------------|-------------------|-------------------|-------------------|


                                                                                
-------------------|-------------------|------------------|------|------|------|
-------------------|-------------------|------------------|------|------|------|
--4----------------|--2----------------|------------------|------|------|------|
-------------------|-------------------|------------------|------|------|------|


                                                                
------|------|------|------|------|------|------|------|------||
------|------|------|------|------|------|------|------|------||
------|------|------|------|------|------|------|------|------||
------|------|------|------|------|------|------|------|------||
            
Submit corrections

comments powered by Disqus
↑ Back to top | King Diamond Bass for Insanity. Lyrics for acoustic guitar and electric guitar. 1 Tablatures and chords are parodies/interpretations of the original songs. You may use it for private study, scholarship, research or language learning purposes only