» » »

King Diamond, I'm Not A Stranger Bass tabs (ver.1)

Artists:  A B C D E F G H I J K L M N O P Q R S T U V W X Y Z # 

I'm Not A Stranger Bass tabs (ver.1)

King Diamond Tabs
Rating:
0/5 (0 votes)
I'm Not A Stranger lessons Tabs too difficult? Try these video lessons and learn fast
                G||-------------------------------------------------||
D||*-----------------------------------------------*||
A||*--------2----3---------------3----2-2----------*||
E||---0-0-0----0-----------0-0-0---0----------------||


                                                
-----------------------------------------------|
-----------------------------------------------|
--------7----8---------------8----7-7----------|
--0-0-0----0-----------0-0-0---0---------------|


                                                
-----------------------------------------------|
-----------------------------------------------|
--------7----8---------------8----7-7----------|
--0-0-0----0-----------0-0-0---0---------------|


                                             
--------------------------------------------|
--------------------------------------------|
--------------------------------------------|
--2--2-2-2--2-2-2--2-2-2--2-2-2--2-2-2--2-2-|


                                             
--------------------------------------------|
--------------------------------------------|
--------------------------------------------|
--2--2-2-2--2-2-2--2-2-2--2-2-2--2-2-2--2-2-|


                                             
--------------------------------------------|
--------------------------------------------|
--------------------------------------------|
--2--2-2-2--2-2-2--2-2-2--2-2-2--2-2-2--2-2-|


                                             
--------------------------------------------|
--------------------------------------------|
--------------------------------------------|
--2--2-2-2--2-2-2--2-2-2--2-2-2--2-2-2--2-2-|


                                                                          
|--------------------------------------|---------------------------------|
|*-------------------------------------|---------------------------------|
|*------------6s--------------------7s-|---------------------4s----------|
|---4s-4s4s4s----4s-------4s-4s4s4s----|--4s-------2s-2s2s2-----2s-------|


                                                                 
------------------------||---------4----------2-----------4-----|
-----------------------*||*-----4----------2-----2-----4--------|
-------------7----6----*||*--2--------0-------------2--------0--|
--5--5--4---------------||--------------------------------------|


                                                                
-------2-----------4----------2-----|-------------------------||
----2-----2-----4----------2-----2--|------7----------9------*||
-------------2--------0-------------|--5-5-5------7-7-7------*||
------------------------------------|-------------------------||


                                             
--------------------------------------------|
--------------------------------------------|
--------------------------------------------|
--2--2-2-2--2-2-2--2-2-2--2-2-2--2-2-2--2-2-|


                                             
--------------------------------------------|
--------------------------------------------|
--------------------------------------------|
--2--2-2-2--2-2-2--2-2-2--2-2-2--2-2-2--2-2-|


                                             
--------------------------------------------|
--------------------------------------------|
--------------------------------------------|
--2--2-2-2--2-2-2--2-2-2--2-2-2--2-2-2--2-2-|


                                             
--------------------------------------------|
--------------------------------------------|
--------------------------------------------|
--2--2-2-2--2-2-2--2-2-2--2-2-2--2-2-2--2-2-|


                                                                          
|--------------------------------------|---------------------------------|
|*-------------------------------------|---------------------------------|
|*------------6s--------------------7s-|---------------------4s----------|
|---4s-4s4s4s----4s-------4s-4s4s4s----|--4s-------2s-2s2s2-----2s-------|


                                                       
------------------------||----------------------------|
-----------------------*||*---------------------------|
-------------7----6----*||*---------------------------|
--5--5--4---------------||---2--2--0-0-2--5--4--5--7--|


                                                        
--------------------------||---------------------------|
-------------------------*||---------------------------|
-------------------------*||--2--2--0-0-2--5--4--5--7--|
--2--2--0-0-2--5----4-----||---------------------------|


                                                                                
-------------------------|---------------------------|-------------------------|
-------------------------|---------------------------|-------------------------|
--2--2--0-0-2--5----4----|---------------------------|-------------------------|
-------------------------|--2--2--0-0-2--5--4--5--7--|--2--2--0-0-2--5----4----|


                                                                             
|---------4----------2-----------4-----|-------2-----------4----------2-----|
|*-----4----------2-----2-----4--------|----2-----2-----4----------2-----2--|
|*--2--------0-------------2--------0--|-------------2--------0-------------|
|--------------------------------------|------------------------------------|


                                                                  
-------------------------||--------------------------------------|
------7----------9------*||*-------------------------------------|
--5-5-5------7-7-7------*||*------------6s--------------------7s-|
-------------------------||---4s-4s4s4s----4s-------4s-4s4s4s----|


                                                            
---------------------------------|------------------------||
---------------------------------|-----------------------*||
---------------------4s----------|-------------7----6----*||
--4s-------2s-2s2s2-----2s-------|--5--5--4---------------||


                                                
-----------------------------------------------|
-----------------------------------------------|
--------7----8---------------8----7-7----------|
--0-0-0----0-----------0-0-0---0---------------|


                                                
-----------------------------------------------|
-----------------------------------------------|
--------7----8---------------8----7-7----------|
--0-0-0----0-----------0-0-0---0---------------|


                                                
-----------------------------------------------|
-----------------------------------------------|
--------7----8---------------8----7-7----------|
--0-0-0----0-----------0-0-0---0---------------|


                                                
-----------------------------------------------|
-----------------------------------------------|
--------7----8---------------8----7-7----------|
--0-0-0----0-----------0-0-0---0---------------|


                                                
-----------------------------------------------|
-----------------------------------------------|
--------7----8---------------8----7-7----------|
--0-0-0----0-----------0-0-0---0---------------|


                                                
-----------------------------------------------|
-----------------------------------------------|
--------7----8---------------8----7-7----------|
--0-0-0----0-----------0-0-0---0---------------|


                                             
--------------------------------------------|
--------------------------------------------|
--------------------------------------------|
--2--2-2-2--2-2-2--2-2-2--2-2-2--2-2-2--2-2-|


                                             
--------------------------------------------|
--------------------------------------------|
--------------------------------------------|
--2--2-2-2--2-2-2--2-2-2--2-2-2--2-2-2--2-2-|


                                             
--------------------------------------------|
--------------------------------------------|
--------------------------------------------|
--2--2-2-2--2-2-2--2-2-2--2-2-2--2-2-2--2-2-|


                                             
--------------------------------------------|
--------------------------------------------|
--------------------------------------------|
--2--2-2-2--2-2-2--2-2-2--2-2-2--2-2-2--2-2-|


                                                                          
|--------------------------------------|---------------------------------|
|*-------------------------------------|---------------------------------|
|*------------6s--------------------7s-|---------------------4s----------|
|---4s-4s4s4s----4s-------4s-4s4s4s----|--4s-------2s-2s2s2-----2s-------|


                                                       
------------------------||----------------------------|
-----------------------*||*---------------------------|
-------------7----6----*||*---------------------------|
--5--5--4---------------||---2--2--0-0-2--5--4--5--7--|


                                                        
--------------------------||---------------------------|
-------------------------*||---------------------------|
-------------------------*||--2--2--0-0-2--5--4--5--7--|
--2--2--0-0-2--5----4-----||---------------------------|


                                                                                
-------------------------|---------------------------|-------------------------|
-------------------------|---------------------------|-------------------------|
--2--2--0-0-2--5----4----|---------------------------|-------------------------|
-------------------------|--2--2--0-0-2--5--4--5--7--|--2--2--0-0-2--5----4----|


                                                  2x
|-------------------------------------------------||
|*-----------------------------------------------*||
|*--------7----8---------------8----7-7----------*||
|---0-0-0----0-----------0-0-0---0----------------||


                                                 
-----------------------------------------------||
-----------------------------------------------||
--------7----8---------------8----7-7----------||
--0-0-0----0-----------0-0-0---0---------------||
            

comments powered by Disqus
↑ Back to top | King Diamond Bass for I'm Not A Stranger. Lyrics for acoustic guitar and electric guitar. Tablatures and chords are parodies/interpretations of the original songs. You may use it for private study, scholarship, research or language learning purposes only