>
 >
House Of God

House Of God Bass Tabs

King Diamond - House Of God chords, tabs, tablatures, lyrics

Guitar lessons | Add/correct | Request | Top 50 tabs Artists:  A B C D E F G H I J K L M N O P Q R S T U V W X Y Z 0-9

House Of God Bass Tabs – King Diamond

CD, Sheet music, Poster

Do you like House Of God? Share with your friends now
Bass TabsTabs
G||------------------|------------------|------------------|------------------|
D||------------------|------------------|------------------|------------------|
A||------------------|------------------|------------------|------------------|
E||------------------|------------------|------------------|------------------|


                                                                              
------------------|------------------|-------------------|-------------------|
------------------|------------------|-------------------|-------------------|
------------------|------------------|-------------------|-------------------|
------------------|------------------|--5----------------|----------------3--|


                                                           
-------------------|------------------|-------------------|
-------------------|------------------|-------------------|
-------------------|------------------|--5----------------|
--1----------------|------------------|-------------------|


                                                        
----------------------------|--------------------------|
--2--3--2h3h2---------------|--------------------------|
--------------5-3--2--------|--2--2--2--2--2--2--2--2--|
----------------------5--4--|--------------------------|


                                                      
--------------------------|--------------------------|
--------------------------|--------------------------|
--2--2--2--2--2--2--2--0--|--------------------------|
--------------------------|--3--3--3--3--3--3--3--3--|


                                                                          
--------------------------|--------------------------|-------------------|
--------------------------|--------------------------|-------------------|
--------------------------|--7--7--7--7--7--7--7--7--|-------------------|
--3--3--3--3--3--3--3--3--|--------------------------|--2----------------|


                                                                          
-------------------|--------------------------|--------------------------|
-------------------|--------------------------|--------------------------|
-------------------|--2--2--2--2--2--2--2--2--|--2--2--2--2--1--1--1--1--|
--2----------------|--------------------------|--------------------------|


                                                      
--------------------------|--------------------------|
--------------------------|--------------------------|
--2--2--2--2--2--2--2--2--|--2--2--2--2--------------|
--------------------------|--------------3--3--2--2--|


                                                      
--------------------------|--------------------------|
--------------------------|--------------------------|
--2--2--2--2--2--2--2--2--|--2--2--2--2--1--1--1--1--|
--------------------------|--------------------------|


                                                                              
--------------------------|--------------------------|-----------------------|
--------------------------|--------------------------|--2-----2--------------|
--2--2--2--2--2--2--2--2--|--2--2--2--2--------------|-----------5--------5--|
--------------------------|--------------3--3--2--2--|-----0-----------------|


                                                       
-------------------------|----------------------------|
--2-----2----------------|--2-----2-----4---2---------|
-----------5----3--2--2--|-----------5--------5-3-2-0-|
-----0-------------------|-----0----------------------|


                                                                                
--------------4--2-------|--------------------------|--------------------------|
-----------5--------5----|--------------------------|--------------------------|
-------------------------|--2--2--2--2--2--2--2--2--|--2--2--2--2--1--1--1--1--|
--0--0--0----------------|--------------------------|--------------------------|


                                                      
--------------------------|--------------------------|
--------------------------|--------------------------|
--2--2--2--2--2--2--2--2--|--2--2--2--2--------------|
--------------------------|--------------3--3--2--2--|


                                                      
--------------------------|--------------------------|
--------------------------|--------------------------|
--2--2--2--2--2--2--2--2--|--2--2--2--2--1--1--1--1--|
--------------------------|--------------------------|


                                                      
--------------------------|--------------------------|
--------------------------|--------------------------|
--2--2--2--2--2--2--2--2--|--2--2--2--2--------------|
--------------------------|--------------3--3--2--2--|


                                                        
---------------------------|---------------------------|
---------------------------|---------------------------|
--5--0-0-0-0-7----0--0--0--|--5--0-0-0-0-7----0--0--0--|
---------------------------|---------------------------|


                                                                                
---------------------------|-----------------------|---------------------------|
---------------------------|-----------------------|---------------------------|
--1--0-0-0-0-7----0--0--0--|-----------------------|--2--2--2--2--2--2--2--2-2-|
---------------------------|--3--5--6h3-5~---------|---------------------------|


                                                       
---------------------------|--------------------------|
---------------------------|--------------4-----------|
--4--4--4--4--4--4--4--4-4-|--5--4--5--7-----7--5--4--|
---------------------------|--------------------------|


                                                      
--------------------------|--------------------------|
--------------------------|--------------------------|
--------------------------|--0--0--0--0--0--0--0--0--|
--0--0--0--0--2--2--2--2--|--------------------------|


                                                      
--------------------------|--------------------------|
--------------------------|--------------------------|
--0--0--0--0--0--0--0-----|--------------------------|
-----------------------3--|--1--1--1--1--1--1--1--1--|


                                                      
--------------------------|--------------------------|
--------------------------|--------------------------|
--------------------------|--5--5--5--5--5--5--5--5--|
--1--1--1--1--1--1--1--1--|--------------------------|


                                                        
----------------------------|--------------------------|
--2--3--2h3h2---------------|--------------------------|
--------------5-3--2--------|--0--0--0--0--0--0--0--0--|
----------------------5--4--|--------------------------|


                                                      
--------------------------|--------------------------|
--------------------------|--------------------------|
--0--0--0--0--0--0--0-----|--------------------------|
-----------------------3--|--1--1--1--1--1--1--1--1--|


                                                      
--------------------------|--------------------------|
--------------------------|--------------------------|
--------------------------|--5--5--5--5--5--5--5--5--|
--1--1--1--1--1--1--1--1--|--------------------------|


                                                        
----------------------------|--------------------------|
--2--3--2h3h2---------------|--------------------------|
--------------5-3--2--------|--2--2--2--2--2--2--2--2--|
----------------------5--4--|--------------------------|


                                                      
--------------------------|--------------------------|
--------------------------|--------------------------|
--2--2--2--2--2--2--2--0--|--------------------------|
--------------------------|--3--3--3--3--3--3--3--3--|


                                                      
--------------------------|--------------------------|
--------------------------|--------------------------|
--------------------------|--7--7--7--7--7--7--7--7--|
--3--3--3--3--3--3--3--3--|--------------------------|


                                                                              
----------------------------|----------------------------|-------------------|
--4--5--4h5h4---------------|--4--5--4h5h4---------------|-------------------|
--------------7-5--4--------|--------------7-5--4--------|-------------------|
----------------------7--6--|----------------------7--6--|--0----------------|


                                                            
-------------------|-------------------|-------------------|
-------------------|-------------------|-------------------|
-------------------|-------------------|-------------------|
--0----------------|--0----------------|--0----------------|


                                                                  
---------------------------------|-------------------------------|
---------------------------------|-------------------------------|
--------------------5-----4------|--------------------5-----4----|
--2-2-2-2-5-2-2-2-2---2-2----5-4-|--2-2-2-2-5-2-2-2-2---2-2------|


                                                                 
---------------------------------|------------------------------|
---------------------------------|------------------------------|
--------------------5-----4------|--------------------5---4--2--|
--2-2-2-2-5-2-2-2-2---2-2----5-4-|--2-2-2-2-5-2-2-2-2-----------|


                                                                  
---------------------------------|-------------------------------|
--------------------3-----2------|--------------------3-----2----|
--0-0-0-0-3-0-0-0-0---0-0----3-2-|--0-0-0-0-3-0-0-0-0---0-0------|
---------------------------------|-------------------------------|


                                                                 
---------------------------------|------------------------------|
--------------------3-----2------|--------------------3---2--0--|
--0-0-0-0-3-0-0-0-0---0-0----3-2-|--0-0-0-0-3-0-0-0-0-----------|
---------------------------------|------------------------------|


                                                                
--------------------|---------------------|--------------------|
-----------2--------|---------------------|-----------2--------|
--------------------|----------------5----|--------------------|
--0-----------------|--0--------2---------|--0-----------------|


                                                                 
---------------------|--------------------|---------------------|
---------------------|-----------2--------|---------------------|
----------------5----|--------------------|----------------5----|
--0--------2---------|--0-----------------|--0--------2---------|


                                                                      
--------------------|---------------------|--------------------------|
-----------2--------|---------------------|--------------------------|
--------------------|----------------5----|--------------------------|
--0-----------------|--0--------2---------|--2--2--2--2--2--2--2--2--|


                                                      
--------------------------|--------------------------|
--------------------------|--------------------------|
--------------------------|--------------------------|
--2--2--2--2--1--1--1--1--|--2--2--2--2--2--2--2--2--|


                                                      
--------------------------|--------------------------|
--------------------------|--------------------------|
--------------5--5--4--4--|--------------------------|
--2--2--2--2--------------|--2--2--2--2--2--2--2--2--|


                                                      
--------------------------|--------------------------|
--------------------------|--------------------------|
--------------------------|--------------------------|
--2--2--2--2--1--1--1--1--|--2--2--2--2--2--2--2--2--|


                                                                             
--------------------------|-----------------------|-------------------------|
--------------------------|-----------------------|--2-----2----------------|
--------------5--5--4--4--|--7-----7--5--------5--|-----------5----3--2--2--|
--2--2--2--2--------------|-----0-----------------|-----0-------------------|


                                                       
----------------------------|--------------4--2-------|
--2-----2-----4-------------|-----------5--------5----|
-----------5------7-5-3-----|-------------------------|
-----0------------------7-5-|--0--0--0----------------|


                                                      
--------------------------|--------------------------|
--------------------------|--------------------------|
--2--2--2--2--2--2--2--2--|--2--2--2--2--1--1--1--1--|
--------------------------|--------------------------|


                                                      
--------------------------|--------------------------|
--------------------------|--------------------------|
--2--2--2--2--2--2--2--2--|--2--2--2--2--------------|
--------------------------|--------------3--3--2--2--|


                                                      
--------------------------|--------------------------|
--------------------------|--------------------------|
--2--2--2--2--2--2--2--2--|--2--2--2--2--1--1--1--1--|
--------------------------|--------------------------|


                                                      
--------------------------|--------------------------|
--------------------------|--------------------------|
--2--2--2--2--2--2--2--2--|--2--2--2--2--------------|
--------------------------|--------------3--3--2--2--|


                                                        
---------------------------|---------------------------|
---------------------------|---------------------------|
--5--0-0-0-0-7----0--0--0--|--5--0-0-0-0-7----0--0--0--|
---------------------------|---------------------------|


                                                                                
---------------------------|-----------------------|---------------------------|
---------------------------|-----------------------|---------------------------|
--1--0-0-0-0-7----0--0--0--|-----------------------|--2--2--2--2--2--2--2--2-2-|
---------------------------|--3--5--6h3-5~---------|---------------------------|


                                                       
---------------------------|--------------------------|
---------------------------|-----------2--4--2--------|
--4--4--4--4--4--4--4--4-4-|--5--4--5-----------5--4--|
---------------------------|--------------------------|


                                                      
--------------------------|--------------------------|
--------------------------|--------------------------|
--------------------------|--0--0--0--0--0--0--0--0--|
--0--0--0--0--2--2--2--2--|--------------------------|


                                                      
--------------------------|--------------------------|
--------------------------|--------------------------|
--0--0--0--0--0--0--0-----|--------------------------|
-----------------------3--|--1--1--1--1--1--1--1--1--|


                                                      
--------------------------|--------------------------|
--------------------------|--------------------------|
--------------------------|--5--5--5--5--5--5--5--5--|
--1--1--1--1--1--1--1--1--|--------------------------|


                                                        
----------------------------|--------------------------|
--2--3--2h3h2---------------|--------------------------|
--------------5-3--2--------|--0--0--0--0--0--0--0--0--|
----------------------5--4--|--------------------------|


                                                      
--------------------------|--------------------------|
--------------------------|--------------------------|
--0--0--0--0--0--0--0-----|--------------------------|
-----------------------3--|--1--1--1--1--1--1--1--1--|


                                                      
--------------------------|--------------------------|
--------------------------|--------------------------|
--------------------------|--5--5--5--5--5--5--5--5--|
--1--1--1--1--1--1--1--1--|--------------------------|


                                                        
----------------------------|--------------------------|
--2--3--2h3h2---------------|--------------------------|
--------------5-3--2--------|--2--2--2--2--2--2--2--2--|
----------------------5--4--|--------------------------|


                                                      
--------------------------|--------------------------|
--------------------------|--------------------------|
--2--2--2--2--2--2--2--0--|--------------------------|
--------------------------|--3--3--3--3--3--3--3--3--|


                                                      
--------------------------|--------------------------|
--------------------------|--------------------------|
--------------------------|--7--7--7--7--7--7--7--7--|
--3--3--3--3--3--3--3--3--|--------------------------|


                                                          
----------------------------|----------------------------|
--4--5--4h5h4---------------|--4--5--4h5h4---------------|
--------------7-5--4--------|--------------7-5--4--------|
----------------------7--6--|----------------------7--6--|


                                                      
--------------------------|--------------------------|
--------------------------|--------------------------|
--0--0--0--0--0--0--0--0--|--0--0--0--0--0--0--0-----|
--------------------------|-----------------------3--|


                                                      
--------------------------|--------------------------|
--------------------------|--------------------------|
--------------------------|--------------------------|
--1--1--1--1--1--1--1--1--|--1--1--1--1--1--1--1--1--|


                                                        
--------------------------|----------------------------|
--------------------------|--2--3--2h3h2---------------|
--5--5--5--5--5--5--5--5--|--------------5-3--2--------|
--------------------------|----------------------5--4--|


                                                      
--------------------------|--------------------------|
--------------------------|--------------------------|
--0--0--0--0--0--0--0--0--|--0--0--0--0--0--0--0-----|
--------------------------|-----------------------3--|


                                                      
--------------------------|--------------------------|
--------------------------|--------------------------|
--------------------------|--------------------------|
--1--1--1--1--1--1--1--1--|--1--1--1--1--1--1--1--1--|


                                                        
--------------------------|----------------------------|
--------------------------|--2--3--2h3h2---------------|
--5--5--5--5--5--5--5--5--|--------------5-3--2--------|
--------------------------|----------------------5--4--|


                                                      
--------------------------|--------------------------|
--------------------------|--------------------------|
--2--2--2--2--2--2--2--2--|--2--2--2--2--2--2--2--0--|
--------------------------|--------------------------|


                                                      
--------------------------|--------------------------|
--------------------------|--------------------------|
--------------------------|--------------------------|
--3--3--3--3--3--3--3--3--|--3--3--3--3--3--3--3--3--|


                                                        
--------------------------|----------------------------|
--------------------------|--4--5--4h5h4---------------|
--7--7--7--7--7--7--7--7--|--------------7-5--4--------|
--------------------------|----------------------7--6--|


                                                  
----------------------------|-------------------||
--4--5--4h5h4---------------|-------------------||
--------------7-5--4--------|-------------------||
----------------------7--6--|--7~---------------||





Comments


Popular King Diamond tabs & chords
Burn Bass Tabs
The Storm Bass Tabs
This Place Is Terrible Bass Tabs
Charon Tabs
Charon 1 Tabs
Halloween Tabs
Halloween 1 Tabs
Never Ending Hill Tabs
The Uninvited Guest Tabs
Welcome Home Tabs


Song lyrics



↑ Back to top | Tablatures and chords are parodies/interpretations of the original songs. You may use it for private study, scholarship, research or language learning purposes only
© 2014 AZChords.com Contact us | Privacy policy | DMCA | Add/correct tabs | Request tabs | Top 50 tabs